  0
SECTION
  2
HEADER
  9
$ACADVER
  1
AC1014
  9
$ACADMAINTVER
 70
     9
  9
$DWGCODEPAGE
  3
ANSI_1252
  9
$INSBASE
 10
0.0
 20
0.0
 30
0.0
  9
$EXTMIN
 10
0.0
 20
0.0
 30
0.0
  9
$EXTMAX
 10
25.0
 20
35.0
 30
0.0
  9
$LIMMIN
 10
0.0
 20
0.0
  9
$LIMMAX
 10
420.0
 20
297.0
  9
$ORTHOMODE
 70
     0
  9
$REGENMODE
 70
     1
  9
$FILLMODE
 70
     1
  9
$QTEXTMODE
 70
     0
  9
$MIRRTEXT
 70
     1
  9
$DRAGMODE
 70
     2
  9
$LTSCALE
 40
7.55
  9
$OSMODE
 70
    37
  9
$ATTMODE
 70
     1
  9
$TEXTSIZE
 40
2.5
  9
$TRACEWID
 40
1.0
  9
$TEXTSTYLE
  7
STANDARD
  9
$CLAYER
  8
0
  9
$CELTYPE
  6
BYLAYER
  9
$CECOLOR
 62
   256
  9
$CELTSCALE
 40
1.0
  9
$DELOBJ
 70
     1
  9
$DISPSILH
 70
     0
  9
$DIMSCALE
 40
1.0
  9
$DIMASZ
 40
2.5
  9
$DIMEXO
 40
0.625
  9
$DIMDLI
 40
3.75
  9
$DIMRND
 40
0.0
  9
$DIMDLE
 40
0.0
  9
$DIMEXE
 40
1.25
  9
$DIMTP
 40
0.0
  9
$DIMTM
 40
0.0
  9
$DIMTXT
 40
2.5
  9
$DIMCEN
 40
2.5
  9
$DIMTSZ
 40
0.0
  9
$DIMTOL
 70
     0
  9
$DIMLIM
 70
     0
  9
$DIMTIH
 70
     0
  9
$DIMTOH
 70
     0
  9
$DIMSE1
 70
     0
  9
$DIMSE2
 70
     0
  9
$DIMTAD
 70
     1
  9
$DIMZIN
 70
     8
  9
$DIMBLK
  1

  9
$DIMASO
 70
     1
  9
$DIMSHO
 70
     1
  9
$DIMPOST
  1

  9
$DIMAPOST
  1

  9
$DIMALT
 70
     0
  9
$DIMALTD
 70
     3
  9
$DIMALTF
 40
0.03937007874016
  9
$DIMLFAC
 40
1.0
  9
$DIMTOFL
 70
     1
  9
$DIMTVP
 40
0.0
  9
$DIMTIX
 70
     0
  9
$DIMSOXD
 70
     0
  9
$DIMSAH
 70
     0
  9
$DIMBLK1
  1

  9
$DIMBLK2
  1

  9
$DIMSTYLE
  2
ISO-25
  9
$DIMCLRD
 70
     0
  9
$DIMCLRE
 70
     0
  9
$DIMCLRT
 70
     0
  9
$DIMTFAC
 40
1.0
  9
$DIMGAP
 40
0.625
  9
$DIMJUST
 70
     0
  9
$DIMSD1
 70
     0
  9
$DIMSD2
 70
     0
  9
$DIMTOLJ
 70
     0
  9
$DIMTZIN
 70
     8
  9
$DIMALTZ
 70
     0
  9
$DIMALTTZ
 70
     0
  9
$DIMFIT
 70
     3
  9
$DIMUPT
 70
     0
  9
$DIMUNIT
 70
     2
  9
$DIMDEC
 70
     2
  9
$DIMTDEC
 70
     2
  9
$DIMALTU
 70
     2
  9
$DIMALTTD
 70
     3
  9
$DIMTXSTY
  7
STANDARD
  9
$DIMAUNIT
 70
     0
  9
$LUNITS
 70
     2
  9
$LUPREC
 70
     4
  9
$SKETCHINC
 40
1.0
  9
$FILLETRAD
 40
10.0
  9
$AUNITS
 70
     0
  9
$AUPREC
 70
     0
  9
$MENU
  1
.
  9
$ELEVATION
 40
0.0
  9
$PELEVATION
 40
0.0
  9
$THICKNESS
 40
0.0
  9
$LIMCHECK
 70
     0
  9
$CHAMFERA
 40
10.0
  9
$CHAMFERB
 40
10.0
  9
$CHAMFERC
 40
20.0
  9
$CHAMFERD
 40
0.0
  9
$SKPOLY
 70
     0
  9
$TDCREATE
 40
2459283.595138889
  9
$TDUPDATE
 40
2459283.598611111
  9
$TDINDWG
 40
0.0000000116
  9
$TDUSRTIMER
 40
0.0000000116
  9
$USRTIMER
 70
     1
  9
$ANGBASE
 50
0.0
  9
$ANGDIR
 70
     0
  9
$PDMODE
 70
     0
  9
$PDSIZE
 40
0.0
  9
$PLINEWID
 40
0.0
  9
$COORDS
 70
     1
  9
$SPLFRAME
 70
     0
  9
$SPLINETYPE
 70
     6
  9
$SPLINESEGS
 70
     8
  9
$ATTDIA
 70
     0
  9
$ATTREQ
 70
     1
  9
$HANDLING
 70
     1
  9
$HANDSEED
  5
547
  9
$SURFTAB1
 70
     6
  9
$SURFTAB2
 70
     6
  9
$SURFTYPE
 70
     6
  9
$SURFU
 70
     6
  9
$SURFV
 70
     6
  9
$UCSNAME
  2

  9
$UCSORG
 10
0.0
 20
0.0
 30
0.0
  9
$UCSXDIR
 10
1.0
 20
0.0
 30
0.0
  9
$UCSYDIR
 10
0.0
 20
1.0
 30
0.0
  9
$PUCSNAME
  2

  9
$PUCSORG
 10
0.0
 20
0.0
 30
0.0
  9
$PUCSXDIR
 10
1.0
 20
0.0
 30
0.0
  9
$PUCSYDIR
 10
0.0
 20
1.0
 30
0.0
  9
$USERI1
 70
     0
  9
$USERI2
 70
     0
  9
$USERI3
 70
     0
  9
$USERI4
 70
     0
  9
$USERI5
 70
     0
  9
$USERR1
 40
0.0
  9
$USERR2
 40
0.0
  9
$USERR3
 40
0.0
  9
$USERR4
 40
0.0
  9
$USERR5
 40
0.0
  9
$WORLDVIEW
 70
     1
  9
$SHADEDGE
 70
     3
  9
$SHADEDIF
 70
    70
  9
$TILEMODE
 70
     1
  9
$MAXACTVP
 70
    64
  9
$PINSBASE
 10
0.0
 20
0.0
 30
0.0
  9
$PLIMCHECK
 70
     0
  9
$PEXTMIN
 10
1.000000000000000E+20
 20
1.000000000000000E+20
 30
1.000000000000000E+20
  9
$PEXTMAX
 10
-1.000000000000000E+20
 20
-1.000000000000000E+20
 30
-1.000000000000000E+20
  9
$PLIMMIN
 10
0.0
 20
0.0
  9
$PLIMMAX
 10
420.0
 20
297.0
  9
$UNITMODE
 70
     0
  9
$VISRETAIN
 70
     1
  9
$PLINEGEN
 70
     0
  9
$PSLTSCALE
 70
     1
  9
$TREEDEPTH
 70
  3020
  9
$PICKSTYLE
 70
     1
  9
$CMLSTYLE
  2
STANDARD
  9
$CMLJUST
 70
     0
  9
$CMLSCALE
 40
20.0
  9
$PROXYGRAPHICS
 70
     1
  9
$MEASUREMENT
 70
     1
  0
ENDSEC
  0
SECTION
  2
CLASSES
  0
CLASS
  1
ACDBDICTIONARYWDFLT
  2
AcDbDictionaryWithDefault
  3
ObjectDBX Classes
 90
        0
280
     0
281
     0
  0
CLASS
  1
VISUALSTYLE
  2
AcDbVisualStyle
  3
ObjectDBX Classes
 90
     4095
280
     0
281
     0
  0
CLASS
  1
MATERIAL
  2
AcDbMaterial
  3
ObjectDBX Classes
 90
     1153
280
     0
281
     0
  0
CLASS
  1
SCALE
  2
AcDbScale
  3
ObjectDBX Classes
 90
     1153
280
     0
281
     0
  0
CLASS
  1
DICTIONARYVAR
  2
AcDbDictionaryVar
  3
ObjectDBX Classes
 90
        0
280
     0
281
     0
  0
CLASS
  1
XRECORD
  2
AcDbXrecord
  3
AutoCAD 2000
 90
        0
280
     0
281
     0
  0
CLASS
  1
LWPOLYLINE
  2
AcDbPolyline
  3
AutoCAD 2000
 90
        0
280
     0
281
     1
  0
CLASS
  1
HATCH
  2
AcDbHatch
  3
AutoCAD 2000
 90
        0
280
     0
281
     1
  0
CLASS
  1
ACDBPLACEHOLDER
  2
AcDbPlaceHolder
  3
ObjectDBX Classes
 90
        0
280
     0
281
     0
  0
CLASS
  1
LAYOUT
  2
AcDbLayout
  3
ObjectDBX Classes
 90
        0
280
     0
281
     0
  0
ENDSEC
  0
SECTION
  2
TABLES
  0
TABLE
  2
VPORT
  5
8
330
0
100
AcDbSymbolTable
 70
     1
  0
VPORT
  5
29
330
8
100
AcDbSymbolTableRecord
100
AcDbViewportTableRecord
  2
*ACTIVE
 70
     0
 10
0.0
 20
0.0
 11
1.0
 21
1.0
 12
11.26
 22
4.5
 13
0.0
 23
0.0
 14
10.0
 24
10.0
 15
10.0
 25
10.0
 16
0.0
 26
0.0
 36
1.0
 17
0.0
 27
0.0
 37
0.0
 40
9.0
 41
2.503333333333333
 42
50.0
 43
0.0
 44
0.0
 50
0.0
 51
0.0
 71
     0
 72
   100
 73
     1
 74
     3
 75
     0
 76
     0
 77
     0
 78
     0
  0
ENDTAB
  0
TABLE
  2
LTYPE
  5
5
330
0
100
AcDbSymbolTable
 70
    11
  0
LTYPE
  5
14
330
5
100
AcDbSymbolTableRecord
100
AcDbLinetypeTableRecord
  2
BYBLOCK
 70
     0
  3

 72
    65
 73
     0
 40
0.0
  0
LTYPE
  5
15
330
5
100
AcDbSymbolTableRecord
100
AcDbLinetypeTableRecord
  2
BYLAYER
 70
     0
  3

 72
    65
 73
     0
 40
0.0
  0
LTYPE
  5
16
330
5
100
AcDbSymbolTableRecord
100
AcDbLinetypeTableRecord
  2
CONTINUOUS
 70
     0
  3
Solid line
 72
    65
 73
     0
 40
0.0
  0
LTYPE
  5
45
330
5
100
AcDbSymbolTableRecord
100
AcDbLinetypeTableRecord
  2
PHL_THICK
 70
     0
  3
THICK
 72
    65
 73
     0
 40
0.0
  0
LTYPE
  5
59
330
5
100
AcDbSymbolTableRecord
100
AcDbLinetypeTableRecord
  2
SK1
 70
     0
  3
THICK
 72
    65
 73
     0
 40
0.0
  0
LTYPE
  5
6C
330
5
100
AcDbSymbolTableRecord
100
AcDbLinetypeTableRecord
  2
NOCUT
 70
     0
  3
THICK
 72
    65
 73
     0
 40
0.0
  0
LTYPE
  5
71
330
5
100
AcDbSymbolTableRecord
100
AcDbLinetypeTableRecord
  2
LS_SK2
 70
     0
  3
THIN
 72
    65
 73
     0
 40
0.0
  0
LTYPE
  5
D8
330
5
100
AcDbSymbolTableRecord
100
AcDbLinetypeTableRecord
  2
LS_2
 70
     0
  3
THIN
 72
    65
 73
     0
 40
0.0
  0
LTYPE
  5
162
330
5
100
AcDbSymbolTableRecord
100
AcDbLinetypeTableRecord
  2
CUT
 70
     0
  3
THICK
 72
    65
 73
     0
 40
0.0
  0
LTYPE
  5
16F
330
5
100
AcDbSymbolTableRecord
100
AcDbLinetypeTableRecord
  2
LS_SK1
 70
     0
  3
THICK
 72
    65
 73
     0
 40
0.0
  0
LTYPE
  5
2B4
330
5
100
AcDbSymbolTableRecord
100
AcDbLinetypeTableRecord
  2
LONGDASH_DASH
 70
     0
  3
THIN_DASHDOT
 72
    65
 73
     4
 40
0.85
 49
0.4
 74
     0
 49
-0.2
 74
     0
 49
0.05
 74
     0
 49
-0.2
 74
     0
  0
LTYPE
  5
2B9
330
5
100
AcDbSymbolTableRecord
100
AcDbLinetypeTableRecord
  2
INFTOTAL
 70
     0
  3
THIN
 72
    65
 73
     0
 40
0.0
  0
LTYPE
  5
2BF
330
5
100
AcDbSymbolTableRecord
100
AcDbLinetypeTableRecord
  2
LS1
 70
     0
  3
THICK
 72
    65
 73
     0
 40
0.0
  0
ENDTAB
  0
TABLE
  2
LAYER
  5
2
330
0
100
AcDbSymbolTable
 70
    11
  0
LAYER
  5
10
330
2
100
AcDbSymbolTableRecord
100
AcDbLayerTableRecord
  2
0
 70
     0
 62
     7
  6
CONTINUOUS
  0
LAYER
  5
44
330
2
100
AcDbSymbolTableRecord
100
AcDbLayerTableRecord
  2
1
 70
     0
 62
4
  6
CONTINUOUS
370
50
  0
LAYER
  5
58
330
2
100
AcDbSymbolTableRecord
100
AcDbLayerTableRecord
  2
SK1
 70
     0
 62
4
  6
CONTINUOUS
370
50
  0
LAYER
  5
6B
330
2
100
AcDbSymbolTableRecord
100
AcDbLayerTableRecord
  2
NOCUT
 70
     0
 62
7
  6
CONTINUOUS
370
25
  0
LAYER
  5
70
330
2
100
AcDbSymbolTableRecord
100
AcDbLayerTableRecord
  2
SK2
 70
     0
 62
7
  6
CONTINUOUS
370
25
  0
LAYER
  5
D7
330
2
100
AcDbSymbolTableRecord
100
AcDbLayerTableRecord
  2
2
 70
     0
 62
7
  6
CONTINUOUS
370
25
  0
LAYER
  5
161
330
2
100
AcDbSymbolTableRecord
100
AcDbLayerTableRecord
  2
CUT
 70
     0
 62
1
  6
CONTINUOUS
370
25
  0
LAYER
  5
2B3
330
2
100
AcDbSymbolTableRecord
100
AcDbLayerTableRecord
  2
4
 70
     0
 62
2
  6
LONGDASH_DASH
370
25
  0
LAYER
  5
2B6
330
2
100
AcDbSymbolTableRecord
100
AcDbLayerTableRecord
  2
SK4
 70
     0
 62
2
  6
LONGDASH_DASH
370
25
  0
LAYER
  5
2B8
330
2
100
AcDbSymbolTableRecord
100
AcDbLayerTableRecord
  2
INFTOTAL
 70
     0
 62
9
  6
CONTINUOUS
370
18
  0
LAYER
  5
2BE
330
2
100
AcDbSymbolTableRecord
100
AcDbLayerTableRecord
  2
SK6
 70
     0
 62
5
  6
CONTINUOUS
370
25
  0
ENDTAB
  0
TABLE
  2
STYLE
  5
3
330
0
100
AcDbSymbolTable
 70
     1
  0
STYLE
  5
11
330
3
100
AcDbSymbolTableRecord
100
AcDbTextStyleTableRecord
  2
STANDARD
 70
     0
 40
0.0
 41
1.0
 50
0.0
 71
     0
 42
2.5
  3
Monospac821 BT
  4

  0
ENDTAB
  0
TABLE
  2
VIEW
  5
6
330
0
100
AcDbSymbolTable
 70
     0
  0
ENDTAB
  0
TABLE
  2
UCS
  5
7
330
0
100
AcDbSymbolTable
 70
     0
  0
ENDTAB
  0
TABLE
  2
APPID
  5
9
330
0
100
AcDbSymbolTable
 70
     2
  0
APPID
  5
12
330
9
100
AcDbSymbolTableRecord
100
AcDbRegAppTableRecord
  2
ACAD
 70
     0
  0
APPID
  5
3F
330
9
100
AcDbSymbolTableRecord
100
AcDbRegAppTableRecord
  2
CCLAB
 70
     0
  0
ENDTAB
  0
TABLE
  2
DIMSTYLE
  5
A
330
0
100
AcDbSymbolTable
 70
     1
  0
DIMSTYLE
105
27
330
A
100
AcDbSymbolTableRecord
100
AcDbDimStyleTableRecord
  2
ISO-25
 70
     0
  3

  4

  5

  6

  7

 40
1.0
 41
2.5
 42
0.625
 43
3.75
 44
1.25
 45
0.0
 46
0.0
 47
0.0
 48
0.0
140
2.5
141
2.5
142
0.0
143
0.03937007874016
144
1.0
145
0.0
146
1.0
147
0.625
 71
     0
 72
     0
 73
     0
 74
     0
 75
     0
 76
     0
 77
     1
 78
     8
170
     0
171
     3
172
     1
173
     0
174
     0
175
     0
176
     0
177
     0
178
     0
270
     2
271
     2
272
     2
273
     2
274
     3
340
11
275
     0
280
     0
281
     0
282
     0
283
     0
284
     8
285
     0
286
     0
287
     3
288
     0
  0
ENDTAB
  0
TABLE
  2
BLOCK_RECORD
  5
1
330
0
100
AcDbSymbolTable
 70
     2
  0
BLOCK_RECORD
  5
1F
330
1
100
AcDbSymbolTableRecord
100
AcDbBlockTableRecord
  2
*MODEL_SPACE
  0
BLOCK_RECORD
  5
1B
330
1
100
AcDbSymbolTableRecord
100
AcDbBlockTableRecord
  2
*PAPER_SPACE
  0
ENDTAB
  0
ENDSEC
  0
SECTION
  2
BLOCKS
  0
BLOCK
  5
20
330
1F
100
AcDbEntity
  8
0
100
AcDbBlockBegin
  2
*MODEL_SPACE
 70
     0
 10
0.0
 20
0.0
 30
0.0
  3
*MODEL_SPACE
  1

  0
ENDBLK
  5
21
330
1F
100
AcDbEntity
  8
0
100
AcDbBlockEnd
  0
BLOCK
  5
1C
330
1B
100
AcDbEntity
 67
     1
  8
0
100
AcDbBlockBegin
  2
*PAPER_SPACE
 70
     0
 10
0.0
 20
0.0
 30
0.0
  3
*PAPER_SPACE
  1

  0
ENDBLK
  5
1D
330
1B
100
AcDbEntity
 67
     1
  8
0
100
AcDbBlockEnd
  0
ENDSEC
  0
SECTION
  2
ENTITIES
  0
LINE
  5
2C9
330
1F
100
AcDbEntity
  8
1
  6
CONTINUOUS
370
50
 62
4
100
AcDbLine
 10
23.0
 20
-14.5
 30
0.0
 11
20.0
 21
-14.4
 31
0.0
  0
LINE
  5
2CA
330
1F
100
AcDbEntity
  8
1
  6
CONTINUOUS
370
50
 62
4
100
AcDbLine
 10
28.310951
 20
-16.0
 30
0.0
 11
39.5
 21
-16.0
 31
0.0
  0
LINE
  5
2CB
330
1F
100
AcDbEntity
  8
1
  6
CONTINUOUS
370
50
 62
4
100
AcDbLine
 10
23.0
 20
-15.625
 30
0.0
 11
27.826828
 21
-15.625
 31
0.0
  0
LINE
  5
2CC
330
1F
100
AcDbEntity
  8
1
  6
CONTINUOUS
370
50
 62
4
100
AcDbLine
 10
0.0
 20
-14.4
 30
0.0
 11
20.0
 21
-14.4
 31
0.0
  0
LINE
  5
2CD
330
1F
100
AcDbEntity
  8
1
  6
CONTINUOUS
370
50
 62
4
100
AcDbLine
 10
0.0
 20
14.4
 30
0.0
 11
20.0
 21
14.4
 31
0.0
  0
LINE
  5
2CE
330
1F
100
AcDbEntity
  8
1
  6
CONTINUOUS
370
50
 62
4
100
AcDbLine
 10
23.0
 20
15.625
 30
0.0
 11
27.826828
 21
15.625
 31
0.0
  0
LINE
  5
2CF
330
1F
100
AcDbEntity
  8
1
  6
CONTINUOUS
370
50
 62
4
100
AcDbLine
 10
28.310951
 20
16.0
 30
0.0
 11
39.5
 21
16.0
 31
0.0
  0
LINE
  5
2D0
330
1F
100
AcDbEntity
  8
1
  6
CONTINUOUS
370
50
 62
4
100
AcDbLine
 10
20.0
 20
14.4
 30
0.0
 11
23.0
 21
14.5
 31
0.0
  0
LINE
  5
2D1
330
1F
100
AcDbEntity
  8
1
  6
CONTINUOUS
370
50
 62
4
100
AcDbLine
 10
0.0
 20
-14.4
 30
0.0
 11
0.0
 21
14.4
 31
0.0
  0
LINE
  5
2D2
330
1F
100
AcDbEntity
  8
1
  6
CONTINUOUS
370
50
 62
4
100
AcDbLine
 10
20.0
 20
-14.4
 30
0.0
 11
20.0
 21
14.4
 31
0.0
  0
LINE
  5
2D3
330
1F
100
AcDbEntity
  8
1
  6
CONTINUOUS
370
50
 62
4
100
AcDbLine
 10
23.0
 20
-15.625
 30
0.0
 11
23.0
 21
15.625
 31
0.0
  0
LINE
  5
2D4
330
1F
100
AcDbEntity
  8
1
  6
CONTINUOUS
370
50
 62
4
100
AcDbLine
 10
28.310951
 20
-16.0
 30
0.0
 11
28.310951
 21
16.0
 31
0.0
  0
LINE
  5
2D5
330
1F
100
AcDbEntity
  8
1
  6
CONTINUOUS
370
50
 62
4
100
AcDbLine
 10
39.5
 20
-16.0
 30
0.0
 11
39.5
 21
16.0
 31
0.0
  0
LINE
  5
2D6
330
1F
100
AcDbEntity
  8
1
  6
CONTINUOUS
370
50
 62
4
100
AcDbLine
 10
40.0
 20
-15.5
 30
0.0
 11
40.0
 21
15.5
 31
0.0
  0
ARC
  5
2D7
330
1F
100
AcDbEntity
  8
1
  6
CONTINUOUS
370
50
 62
4
100
AcDbCircle
 10
28.310952
 20
-15.5
 30
0.0
 40
0.4999999999999987
100
AcDbArc
 50
194.4774875005044
 51
269.9999369324614
  0
ARC
  5
2D8
330
1F
100
AcDbEntity
  8
1
  6
CONTINUOUS
370
50
 62
4
100
AcDbCircle
 10
28.310952
 20
15.5
 30
0.0
 40
0.4999999999999991
100
AcDbArc
 50
90.00006306753858
 51
165.5225124994956
  0
ARC
  5
2D9
330
1F
100
AcDbEntity
  8
1
  6
CONTINUOUS
370
50
 62
4
100
AcDbCircle
 10
39.5
 20
-15.5
 30
0.0
 40
0.5
100
AcDbArc
 50
270.0000000198475
 51
0.0
  0
ARC
  5
2DA
330
1F
100
AcDbEntity
  8
1
  6
CONTINUOUS
370
50
 62
4
100
AcDbCircle
 10
39.5
 20
15.5
 30
0.0
 40
0.5
100
AcDbArc
 50
0.0
 51
89.99999998015252
  0
ARC
  5
2DB
330
1F
100
AcDbEntity
  8
SK1
  6
CONTINUOUS
370
50
 62
4
100
AcDbCircle
 10
-1.0
 20
9.5
 30
0.0
 40
1.0
100
AcDbArc
 50
270.0
 51
0.0
  0
LINE
  5
2DC
330
1F
100
AcDbEntity
  8
SK1
  6
CONTINUOUS
370
50
 62
4
100
AcDbLine
 10
-1.0
 20
8.5
 30
0.0
 11
-7.0
 21
8.5
 31
0.0
  0
LINE
  5
2DD
330
1F
100
AcDbEntity
  8
SK1
  6
CONTINUOUS
370
50
 62
4
100
AcDbLine
 10
-7.0
 20
8.5
 30
0.0
 11
-7.0
 21
7.6
 31
0.0
  0
ARC
  5
2DE
330
1F
100
AcDbEntity
  8
SK1
  6
CONTINUOUS
370
50
 62
4
100
AcDbCircle
 10
-8.0
 20
7.6
 30
0.0
 40
1.0
100
AcDbArc
 50
270.0
 51
0.0
  0
LINE
  5
2DF
330
1F
100
AcDbEntity
  8
SK1
  6
CONTINUOUS
370
50
 62
4
100
AcDbLine
 10
-8.0
 20
6.6
 30
0.0
 11
-9.57512886940357
 21
6.6
 31
0.0
  0
LINE
  5
2E0
330
1F
100
AcDbEntity
  8
SK1
  6
CONTINUOUS
370
50
 62
4
100
AcDbLine
 10
-9.57512886940357
 20
6.6
 30
0.0
 11
-12.0
 21
8.0
 31
0.0
  0
LINE
  5
2E1
330
1F
100
AcDbEntity
  8
SK1
  6
CONTINUOUS
370
50
 62
4
100
AcDbLine
 10
-12.0
 20
8.0
 30
0.0
 11
-21.775
 21
8.0
 31
0.0
  0
LINE
  5
2E2
330
1F
100
AcDbEntity
  8
SK1
  6
CONTINUOUS
370
50
 62
4
100
AcDbLine
 10
-21.775
 20
8.0
 30
0.0
 11
-23.0
 21
6.775
 31
0.0
  0
LINE
  5
2E3
330
1F
100
AcDbEntity
  8
SK1
  6
CONTINUOUS
370
50
 62
4
100
AcDbLine
 10
-23.0
 20
6.775
 30
0.0
 11
-23.0
 21
-6.775
 31
0.0
  0
LINE
  5
2E4
330
1F
100
AcDbEntity
  8
SK1
  6
CONTINUOUS
370
50
 62
4
100
AcDbLine
 10
-23.0
 20
-6.775
 30
0.0
 11
-21.775
 21
-8.0
 31
0.0
  0
LINE
  5
2E5
330
1F
100
AcDbEntity
  8
SK1
  6
CONTINUOUS
370
50
 62
4
100
AcDbLine
 10
-21.775
 20
-8.0
 30
0.0
 11
-12.0
 21
-8.0
 31
0.0
  0
LINE
  5
2E6
330
1F
100
AcDbEntity
  8
SK1
  6
CONTINUOUS
370
50
 62
4
100
AcDbLine
 10
-12.0
 20
-8.0
 30
0.0
 11
-9.57512886940357
 21
-6.6
 31
0.0
  0
LINE
  5
2E7
330
1F
100
AcDbEntity
  8
SK1
  6
CONTINUOUS
370
50
 62
4
100
AcDbLine
 10
-9.57512886940357
 20
-6.6
 30
0.0
 11
-8.0
 21
-6.6
 31
0.0
  0
ARC
  5
2E8
330
1F
100
AcDbEntity
  8
SK1
  6
CONTINUOUS
370
50
 62
4
100
AcDbCircle
 10
-8.0
 20
-7.6
 30
0.0
 40
1.0
100
AcDbArc
 50
0.0
 51
90.0
  0
LINE
  5
2E9
330
1F
100
AcDbEntity
  8
SK1
  6
CONTINUOUS
370
50
 62
4
100
AcDbLine
 10
-7.0
 20
-7.6
 30
0.0
 11
-7.0
 21
-8.5
 31
0.0
  0
LINE
  5
2EA
330
1F
100
AcDbEntity
  8
SK1
  6
CONTINUOUS
370
50
 62
4
100
AcDbLine
 10
-7.0
 20
-8.5
 30
0.0
 11
-1.0
 21
-8.5
 31
0.0
  0
ARC
  5
2EB
330
1F
100
AcDbEntity
  8
SK1
  6
CONTINUOUS
370
50
 62
4
100
AcDbCircle
 10
-1.0
 20
-9.5
 30
0.0
 40
1.0
100
AcDbArc
 50
0.0
 51
90.0
  0
LINE
  5
2EC
330
1F
100
AcDbEntity
  8
NOCUT
  6
CONTINUOUS
370
25
 62
7
100
AcDbLine
 10
0.0
 20
0.0
 30
0.0
 11
0.0
 21
14.4
 31
0.0
  0
LINE
  5
2ED
330
1F
100
AcDbEntity
  8
NOCUT
  6
CONTINUOUS
370
25
 62
7
100
AcDbLine
 10
0.0
 20
14.4
 30
0.0
 11
20.0
 21
14.4
 31
0.0
  0
LINE
  5
2EE
330
1F
100
AcDbEntity
  8
NOCUT
  6
CONTINUOUS
370
25
 62
7
100
AcDbLine
 10
20.0
 20
0.0
 30
0.0
 11
0.0
 21
0.0
 31
0.0
  0
LINE
  5
2EF
330
1F
100
AcDbEntity
  8
SK2
  6
CONTINUOUS
370
25
 62
7
100
AcDbLine
 10
-23.0
 20
6.766486550000002
 30
0.0
 11
-23.0
 21
28.99149655
 31
0.0
  0
LINE
  5
2F0
330
1F
100
AcDbEntity
  8
SK2
  6
CONTINUOUS
370
25
 62
7
100
AcDbLine
 10
0.0000000000000001
 20
28.99149655
 30
0.0
 11
-0.0000000000000007
 21
15.99149655
 31
0.0
  0
LINE
  5
2F1
330
1F
100
AcDbEntity
  8
SK2
  6
CONTINUOUS
370
25
 62
7
100
AcDbLine
 10
-23.0
 20
27.99149655
 30
0.0
 11
0.0
 21
27.99149655
 31
0.0
  0
LINE
  5
2F2
330
1F
100
AcDbEntity
  8
SK2
  6
CONTINUOUS
370
25
 62
7
100
AcDbLine
 10
-23.0
 20
27.99149655
 30
0.0
 11
-18.0
 21
28.99149655
 31
0.0
  0
LINE
  5
2F3
330
1F
100
AcDbEntity
  8
SK2
  6
CONTINUOUS
370
25
 62
7
100
AcDbLine
 10
-18.0
 20
28.99149655
 30
0.0
 11
-18.0
 21
26.99149655
 31
0.0
  0
LINE
  5
2F4
330
1F
100
AcDbEntity
  8
SK2
  6
CONTINUOUS
370
25
 62
7
100
AcDbLine
 10
-18.0
 20
26.99149655
 30
0.0
 11
-23.0
 21
27.99149655
 31
0.0
  0
LINE
  5
2F5
330
1F
100
AcDbEntity
  8
SK2
  6
CONTINUOUS
370
25
 62
7
100
AcDbLine
 10
-18.33729900181363
 20
27.05895635036272
 30
0.0
 11
-18.0
 21
27.39625535217635
 31
0.0
  0
LINE
  5
2F6
330
1F
100
AcDbEntity
  8
SK2
  6
CONTINUOUS
370
25
 62
7
100
AcDbLine
 10
-18.6908523924069
 20
27.12966702848138
 30
0.0
 11
-18.0
 21
27.82051942088828
 31
0.0
  0
LINE
  5
2F7
330
1F
100
AcDbEntity
  8
SK2
  6
CONTINUOUS
370
25
 62
7
100
AcDbLine
 10
-19.04440578300017
 20
27.20037770660003
 30
0.0
 11
-18.0
 21
28.24478348960021
 31
0.0
  0
LINE
  5
2F8
330
1F
100
AcDbEntity
  8
SK2
  6
CONTINUOUS
370
25
 62
7
100
AcDbLine
 10
-19.39795917359345
 20
27.27108838471869
 30
0.0
 11
-18.0
 21
28.66904755831213
 31
0.0
  0
LINE
  5
2F9
330
1F
100
AcDbEntity
  8
SK2
  6
CONTINUOUS
370
25
 62
7
100
AcDbLine
 10
-19.75151256418672
 20
27.34179906283734
 30
0.0
 11
-18.12726884628006
 21
28.96604278074399
 31
0.0
  0
LINE
  5
2FA
330
1F
100
AcDbEntity
  8
SK2
  6
CONTINUOUS
370
25
 62
7
100
AcDbLine
 10
-20.10506595477999
 20
27.412509740956
 30
0.0
 11
-18.65759893216998
 21
28.85997676356601
 31
0.0
  0
LINE
  5
2FB
330
1F
100
AcDbEntity
  8
SK2
  6
CONTINUOUS
370
25
 62
7
100
AcDbLine
 10
-20.45861934537326
 20
27.48322041907465
 30
0.0
 11
-19.18792901805989
 21
28.75391074638803
 31
0.0
  0
LINE
  5
2FC
330
1F
100
AcDbEntity
  8
SK2
  6
CONTINUOUS
370
25
 62
7
100
AcDbLine
 10
-20.81217273596654
 20
27.55393109719331
 30
0.0
 11
-19.71825910394981
 21
28.64784472921004
 31
0.0
  0
LINE
  5
2FD
330
1F
100
AcDbEntity
  8
SK2
  6
CONTINUOUS
370
25
 62
7
100
AcDbLine
 10
-21.16572612655982
 20
27.62464177531196
 30
0.0
 11
-20.24858918983972
 21
28.54177871203206
 31
0.0
  0
LINE
  5
2FE
330
1F
100
AcDbEntity
  8
SK2
  6
CONTINUOUS
370
25
 62
7
100
AcDbLine
 10
-21.51927951715309
 20
27.69535245343062
 30
0.0
 11
-20.77891927572963
 21
28.43571269485408
 31
0.0
  0
LINE
  5
2FF
330
1F
100
AcDbEntity
  8
SK2
  6
CONTINUOUS
370
25
 62
7
100
AcDbLine
 10
-21.87283290774636
 20
27.76606313154927
 30
0.0
 11
-21.30924936161954
 21
28.3296466776761
 31
0.0
  0
LINE
  5
300
330
1F
100
AcDbEntity
  8
SK2
  6
CONTINUOUS
370
25
 62
7
100
AcDbLine
 10
-22.22638629833963
 20
27.83677380966792
 30
0.0
 11
-21.83957944750945
 21
28.22358066049811
 31
0.0
  0
LINE
  5
301
330
1F
100
AcDbEntity
  8
SK2
  6
CONTINUOUS
370
25
 62
7
100
AcDbLine
 10
-22.57993968893291
 20
27.90748448778658
 30
0.0
 11
-22.36990953339937
 21
28.11751464332013
 31
0.0
  0
LINE
  5
302
330
1F
100
AcDbEntity
  8
SK2
  6
CONTINUOUS
370
25
 62
7
100
AcDbLine
 10
-22.93349307952619
 20
27.97819516590523
 30
0.0
 11
-22.90023961928927
 21
28.01144862614215
 31
0.0
  0
LINE
  5
303
330
1F
100
AcDbEntity
  8
SK2
  6
CONTINUOUS
370
25
 62
7
100
AcDbLine
 10
-22.91693977121416
 20
28.00810859575717
 30
0.0
 11
-22.87540965682123
 21
27.96657848136424
 31
0.0
  0
LINE
  5
304
330
1F
100
AcDbEntity
  8
SK2
  6
CONTINUOUS
370
25
 62
7
100
AcDbLine
 10
-22.56338638062088
 20
28.07881927387583
 30
0.0
 11
-22.34507957093132
 21
27.86051246418626
 31
0.0
  0
LINE
  5
305
330
1F
100
AcDbEntity
  8
SK2
  6
CONTINUOUS
370
25
 62
7
100
AcDbLine
 10
-22.20983299002761
 20
28.14952995199448
 30
0.0
 11
-21.81474948504141
 21
27.75444644700828
 31
0.0
  0
LINE
  5
306
330
1F
100
AcDbEntity
  8
SK2
  6
CONTINUOUS
370
25
 62
7
100
AcDbLine
 10
-21.85627959943434
 20
28.22024063011314
 30
0.0
 11
-21.2844193991515
 21
27.6483804298303
 31
0.0
  0
LINE
  5
307
330
1F
100
AcDbEntity
  8
SK2
  6
CONTINUOUS
370
25
 62
7
100
AcDbLine
 10
-21.50272620884106
 20
28.29095130823179
 30
0.0
 11
-20.75408931326159
 21
27.54231441265232
 31
0.0
  0
LINE
  5
308
330
1F
100
AcDbEntity
  8
SK2
  6
CONTINUOUS
370
25
 62
7
100
AcDbLine
 10
-21.14917281824779
 20
28.36166198635044
 30
0.0
 11
-20.22375922737168
 21
27.43624839547434
 31
0.0
  0
LINE
  5
309
330
1F
100
AcDbEntity
  8
SK2
  6
CONTINUOUS
370
25
 62
7
100
AcDbLine
 10
-20.79561942765451
 20
28.4323726644691
 30
0.0
 11
-19.69342914148176
 21
27.33018237829635
 31
0.0
  0
LINE
  5
30A
330
1F
100
AcDbEntity
  8
SK2
  6
CONTINUOUS
370
25
 62
7
100
AcDbLine
 10
-20.44206603706124
 20
28.50308334258776
 30
0.0
 11
-19.16309905559185
 21
27.22411636111837
 31
0.0
  0
LINE
  5
30B
330
1F
100
AcDbEntity
  8
SK2
  6
CONTINUOUS
370
25
 62
7
100
AcDbLine
 10
-20.08851264646797
 20
28.57379402070641
 30
0.0
 11
-18.63276896970194
 21
27.11805034394039
 31
0.0
  0
LINE
  5
30C
330
1F
100
AcDbEntity
  8
SK2
  6
CONTINUOUS
370
25
 62
7
100
AcDbLine
 10
-19.73495925587469
 20
28.64450469882506
 30
0.0
 11
-18.10243888381203
 21
27.01198432676241
 31
0.0
  0
LINE
  5
30D
330
1F
100
AcDbEntity
  8
SK2
  6
CONTINUOUS
370
25
 62
7
100
AcDbLine
 10
-19.38140586528142
 20
28.71521537694372
 30
0.0
 11
-18.0
 21
27.3338095116623
 31
0.0
  0
LINE
  5
30E
330
1F
100
AcDbEntity
  8
SK2
  6
CONTINUOUS
370
25
 62
7
100
AcDbLine
 10
-19.02785247468814
 20
28.78592605506238
 30
0.0
 11
-18.0
 21
27.75807358037423
 31
0.0
  0
LINE
  5
30F
330
1F
100
AcDbEntity
  8
SK2
  6
CONTINUOUS
370
25
 62
7
100
AcDbLine
 10
-18.67429908409487
 20
28.85663673318103
 30
0.0
 11
-18.0
 21
28.18233764908616
 31
0.0
  0
LINE
  5
310
330
1F
100
AcDbEntity
  8
SK2
  6
CONTINUOUS
370
25
 62
7
100
AcDbLine
 10
-18.32074569350159
 20
28.92734741129969
 30
0.0
 11
-18.0
 21
28.60660171779809
 31
0.0
  0
LINE
  5
311
330
1F
100
AcDbEntity
  8
SK2
  6
CONTINUOUS
370
25
 62
7
100
AcDbLine
 10
0.0
 20
27.99149655
 30
0.0
 11
-5.0
 21
26.99149655
 31
0.0
  0
LINE
  5
312
330
1F
100
AcDbEntity
  8
SK2
  6
CONTINUOUS
370
25
 62
7
100
AcDbLine
 10
-5.0
 20
26.99149655
 30
0.0
 11
-5.0
 21
28.99149655
 31
0.0
  0
LINE
  5
313
330
1F
100
AcDbEntity
  8
SK2
  6
CONTINUOUS
370
25
 62
7
100
AcDbLine
 10
-5.0
 20
28.99149655
 30
0.0
 11
0.0
 21
27.99149655
 31
0.0
  0
LINE
  5
314
330
1F
100
AcDbEntity
  8
SK2
  6
CONTINUOUS
370
25
 62
7
100
AcDbLine
 10
-0.012414981234059
 20
27.98901355375319
 30
0.0
 11
-0.0082766541560394
 21
27.99315188083121
 31
0.0
  0
LINE
  5
315
330
1F
100
AcDbEntity
  8
SK2
  6
CONTINUOUS
370
25
 62
7
100
AcDbLine
 10
-0.5427450671239729
 20
27.88294753657521
 30
0.0
 11
-0.3618300447493154
 21
28.06386255894986
 31
0.0
  0
LINE
  5
316
330
1F
100
AcDbEntity
  8
SK2
  6
CONTINUOUS
370
25
 62
7
100
AcDbLine
 10
-1.073075153013882
 20
27.77688151939723
 30
0.0
 11
-0.7153834353425883
 21
28.13457323706852
 31
0.0
  0
LINE
  5
317
330
1F
100
AcDbEntity
  8
SK2
  6
CONTINUOUS
370
25
 62
7
100
AcDbLine
 10
-1.603405238903792
 20
27.67081550221924
 30
0.0
 11
-1.068936825935861
 21
28.20528391518717
 31
0.0
  0
LINE
  5
318
330
1F
100
AcDbEntity
  8
SK2
  6
CONTINUOUS
370
25
 62
7
100
AcDbLine
 10
-2.133735324793705
 20
27.56474948504126
 30
0.0
 11
-1.422490216529137
 21
28.27599459330583
 31
0.0
  0
LINE
  5
319
330
1F
100
AcDbEntity
  8
SK2
  6
CONTINUOUS
370
25
 62
7
100
AcDbLine
 10
-2.664065410683616
 20
27.45868346786328
 30
0.0
 11
-1.776043607122412
 21
28.34670527142448
 31
0.0
  0
LINE
  5
31A
330
1F
100
AcDbEntity
  8
SK2
  6
CONTINUOUS
370
25
 62
7
100
AcDbLine
 10
-3.194395496573528
 20
27.35261745068529
 30
0.0
 11
-2.129596997715687
 21
28.41741594954314
 31
0.0
  0
LINE
  5
31B
330
1F
100
AcDbEntity
  8
SK2
  6
CONTINUOUS
370
25
 62
7
100
AcDbLine
 10
-3.724725582463439
 20
27.24655143350731
 30
0.0
 11
-2.483150388308962
 21
28.48812662766179
 31
0.0
  0
LINE
  5
31C
330
1F
100
AcDbEntity
  8
SK2
  6
CONTINUOUS
370
25
 62
7
100
AcDbLine
 10
-4.255055668353346
 20
27.14048541632933
 30
0.0
 11
-2.836703778902233
 21
28.55883730578045
 31
0.0
  0
LINE
  5
31D
330
1F
100
AcDbEntity
  8
SK2
  6
CONTINUOUS
370
25
 62
7
100
AcDbLine
 10
-4.785385754243259
 20
27.03441939915135
 30
0.0
 11
-3.19025716949551
 21
28.6295479838991
 31
0.0
  0
LINE
  5
31E
330
1F
100
AcDbEntity
  8
SK2
  6
CONTINUOUS
370
25
 62
7
100
AcDbLine
 10
-5.0
 20
27.24406922210654
 30
0.0
 11
-3.543810560088784
 21
28.70025866201776
 31
0.0
  0
LINE
  5
31F
330
1F
100
AcDbEntity
  8
SK2
  6
CONTINUOUS
370
25
 62
7
100
AcDbLine
 10
-5.0
 20
27.66833329081846
 30
0.0
 11
-3.897363950682055
 21
28.77096934013641
 31
0.0
  0
LINE
  5
320
330
1F
100
AcDbEntity
  8
SK2
  6
CONTINUOUS
370
25
 62
7
100
AcDbLine
 10
-5.0
 20
28.09259735953039
 30
0.0
 11
-4.250917341275331
 21
28.84168001825507
 31
0.0
  0
LINE
  5
321
330
1F
100
AcDbEntity
  8
SK2
  6
CONTINUOUS
370
25
 62
7
100
AcDbLine
 10
-5.0
 20
28.51686142824233
 30
0.0
 11
-4.604470731868607
 21
28.91239069637372
 31
0.0
  0
LINE
  5
322
330
1F
100
AcDbEntity
  8
SK2
  6
CONTINUOUS
370
25
 62
7
100
AcDbLine
 10
-5.0
 20
28.94112549695426
 30
0.0
 11
-4.958024122461882
 21
28.98310137449238
 31
0.0
  0
LINE
  5
323
330
1F
100
AcDbEntity
  8
SK2
  6
CONTINUOUS
370
25
 62
7
100
AcDbLine
 10
-5.0
 20
27.06173157302024
 30
0.0
 11
-4.941470814149799
 21
27.00320238717004
 31
0.0
  0
LINE
  5
324
330
1F
100
AcDbEntity
  8
SK2
  6
CONTINUOUS
370
25
 62
7
100
AcDbLine
 10
-5.0
 20
27.48599564173217
 30
0.0
 11
-4.587917423556526
 21
27.0739130652887
 31
0.0
  0
LINE
  5
325
330
1F
100
AcDbEntity
  8
SK2
  6
CONTINUOUS
370
25
 62
7
100
AcDbLine
 10
-5.0
 20
27.91025971044409
 30
0.0
 11
-4.234364032963255
 21
27.14462374340735
 31
0.0
  0
LINE
  5
326
330
1F
100
AcDbEntity
  8
SK2
  6
CONTINUOUS
370
25
 62
7
100
AcDbLine
 10
-5.0
 20
28.33452377915602
 30
0.0
 11
-3.880810642369982
 21
27.21533442152601
 31
0.0
  0
LINE
  5
327
330
1F
100
AcDbEntity
  8
SK2
  6
CONTINUOUS
370
25
 62
7
100
AcDbLine
 10
-5.0
 20
28.75878784786795
 30
0.0
 11
-3.527257251776708
 21
27.28604509964466
 31
0.0
  0
LINE
  5
328
330
1F
100
AcDbEntity
  8
SK2
  6
CONTINUOUS
370
25
 62
7
100
AcDbLine
 10
-4.760555791775151
 20
28.94360770835503
 30
0.0
 11
-3.173703861183432
 21
27.35675577776331
 31
0.0
  0
LINE
  5
329
330
1F
100
AcDbEntity
  8
SK2
  6
CONTINUOUS
370
25
 62
7
100
AcDbLine
 10
-4.230225705885238
 20
28.83754169117705
 30
0.0
 11
-2.820150470590157
 21
27.42746645588197
 31
0.0
  0
LINE
  5
32A
330
1F
100
AcDbEntity
  8
SK2
  6
CONTINUOUS
370
25
 62
7
100
AcDbLine
 10
-3.699895619995326
 20
28.73147567399907
 30
0.0
 11
-2.466597079996883
 21
27.49817713400062
 31
0.0
  0
LINE
  5
32B
330
1F
100
AcDbEntity
  8
SK2
  6
CONTINUOUS
370
25
 62
7
100
AcDbLine
 10
-3.169565534105415
 20
28.62540965682108
 30
0.0
 11
-2.113043689403609
 21
27.56888781211928
 31
0.0
  0
LINE
  5
32C
330
1F
100
AcDbEntity
  8
SK2
  6
CONTINUOUS
370
25
 62
7
100
AcDbLine
 10
-2.639235448215498
 20
28.5193436396431
 30
0.0
 11
-1.759490298810332
 21
27.63959849023793
 31
0.0
  0
LINE
  5
32D
330
1F
100
AcDbEntity
  8
SK2
  6
CONTINUOUS
370
25
 62
7
100
AcDbLine
 10
-2.108905362325588
 20
28.41327762246512
 30
0.0
 11
-1.405936908217059
 21
27.71030916835659
 31
0.0
  0
LINE
  5
32E
330
1F
100
AcDbEntity
  8
SK2
  6
CONTINUOUS
370
25
 62
7
100
AcDbLine
 10
-1.578575276435678
 20
28.30721160528714
 30
0.0
 11
-1.052383517623785
 21
27.78101984647524
 31
0.0
  0
LINE
  5
32F
330
1F
100
AcDbEntity
  8
SK2
  6
CONTINUOUS
370
25
 62
7
100
AcDbLine
 10
-1.048245190545764
 20
28.20114558810915
 30
0.0
 11
-0.6988301270305094
 21
27.8517305245939
 31
0.0
  0
LINE
  5
330
330
1F
100
AcDbEntity
  8
SK2
  6
CONTINUOUS
370
25
 62
7
100
AcDbLine
 10
-0.5179151046558542
 20
28.09507957093117
 30
0.0
 11
-0.3452767364372363
 21
27.92244120271256
 31
0.0
  0
TEXT
  5
331
330
1F
100
AcDbEntity
  8
SK2
  6
CONTINUOUS
370
25
 62
7
100
AcDbText
 10
-14.41666666666667
 20
29.49149655
 30
0.0
 40
3.5
  1
23
 72
     1
 11
-11.5
 21
29.49149655
 31
0.0
100
AcDbText
  0
LINE
  5
332
330
1F
100
AcDbEntity
  8
2
  6
CONTINUOUS
370
25
 62
7
100
AcDbLine
 10
0.0
 20
-15.92711953
 30
0.0
 11
-0.0000000000000008
 21
-28.92711953
 31
0.0
  0
LINE
  5
333
330
1F
100
AcDbEntity
  8
2
  6
CONTINUOUS
370
25
 62
7
100
AcDbLine
 10
20.0
 20
-28.92711953
 30
0.0
 11
20.0
 21
-15.92711953
 31
0.0
  0
LINE
  5
334
330
1F
100
AcDbEntity
  8
2
  6
CONTINUOUS
370
25
 62
7
100
AcDbLine
 10
0.0
 20
-27.92711953
 30
0.0
 11
20.0
 21
-27.92711953
 31
0.0
  0
LINE
  5
335
330
1F
100
AcDbEntity
  8
2
  6
CONTINUOUS
370
25
 62
7
100
AcDbLine
 10
0.0
 20
-27.92711953
 30
0.0
 11
5.0
 21
-26.92711953
 31
0.0
  0
LINE
  5
336
330
1F
100
AcDbEntity
  8
2
  6
CONTINUOUS
370
25
 62
7
100
AcDbLine
 10
5.0
 20
-26.92711953
 30
0.0
 11
5.0
 21
-28.92711953
 31
0.0
  0
LINE
  5
337
330
1F
100
AcDbEntity
  8
2
  6
CONTINUOUS
370
25
 62
7
100
AcDbLine
 10
5.0
 20
-28.92711953
 30
0.0
 11
0.0
 21
-27.92711953
 31
0.0
  0
LINE
  5
338
330
1F
100
AcDbEntity
  8
2
  6
CONTINUOUS
370
25
 62
7
100
AcDbLine
 10
4.72191018240554
 20
-28.87150156648111
 30
0.0
 11
5.0
 21
-28.59341174888664
 31
0.0
  0
LINE
  5
339
330
1F
100
AcDbEntity
  8
2
  6
CONTINUOUS
370
25
 62
7
100
AcDbLine
 10
4.368356791812267
 20
-28.80079088836245
 30
0.0
 11
5.0
 21
-28.16914768017472
 31
0.0
  0
LINE
  5
33A
330
1F
100
AcDbEntity
  8
2
  6
CONTINUOUS
370
25
 62
7
100
AcDbLine
 10
4.014803401218995
 20
-28.7300802102438
 30
0.0
 11
5.0
 21
-27.7448836114628
 31
0.0
  0
LINE
  5
33B
330
1F
100
AcDbEntity
  8
2
  6
CONTINUOUS
370
25
 62
7
100
AcDbLine
 10
3.661250010625717
 20
-28.65936953212514
 30
0.0
 11
5.0
 21
-27.32061954275086
 31
0.0
  0
LINE
  5
33C
330
1F
100
AcDbEntity
  8
2
  6
CONTINUOUS
370
25
 62
7
100
AcDbLine
 10
3.30769662003244
 20
-28.58865885400649
 30
0.0
 11
4.961544930048668
 21
-26.93481054399027
 31
0.0
  0
LINE
  5
33D
330
1F
100
AcDbEntity
  8
2
  6
CONTINUOUS
370
25
 62
7
100
AcDbLine
 10
2.954143229439168
 20
-28.51794817588783
 30
0.0
 11
4.43121484415876
 21
-27.04087656116825
 31
0.0
  0
LINE
  5
33E
330
1F
100
AcDbEntity
  8
2
  6
CONTINUOUS
370
25
 62
7
100
AcDbLine
 10
2.600589838845891
 20
-28.44723749776918
 30
0.0
 11
3.900884758268844
 21
-27.14694257834623
 31
0.0
  0
LINE
  5
33F
330
1F
100
AcDbEntity
  8
2
  6
CONTINUOUS
370
25
 62
7
100
AcDbLine
 10
2.247036448252615
 20
-28.37652681965052
 30
0.0
 11
3.370554672378929
 21
-27.25300859552421
 31
0.0
  0
LINE
  5
340
330
1F
100
AcDbEntity
  8
2
  6
CONTINUOUS
370
25
 62
7
100
AcDbLine
 10
1.893483057659341
 20
-28.30581614153187
 30
0.0
 11
2.840224586489018
 21
-27.35907461270219
 31
0.0
  0
LINE
  5
341
330
1F
100
AcDbEntity
  8
2
  6
CONTINUOUS
370
25
 62
7
100
AcDbLine
 10
1.539929667066064
 20
-28.23510546341321
 30
0.0
 11
2.309894500599102
 21
-27.46514062988018
 31
0.0
  0
LINE
  5
342
330
1F
100
AcDbEntity
  8
2
  6
CONTINUOUS
370
25
 62
7
100
AcDbLine
 10
1.18637627647279
 20
-28.16439478529456
 30
0.0
 11
1.779564414709189
 21
-27.57120664705816
 31
0.0
  0
LINE
  5
343
330
1F
100
AcDbEntity
  8
2
  6
CONTINUOUS
370
25
 62
7
100
AcDbLine
 10
0.8328228858795151
 20
-28.0936841071759
 30
0.0
 11
1.249234328819276
 21
-27.67727266423614
 31
0.0
  0
LINE
  5
344
330
1F
100
AcDbEntity
  8
2
  6
CONTINUOUS
370
25
 62
7
100
AcDbLine
 10
0.4792694952862403
 20
-28.02297342905725
 30
0.0
 11
0.7189042429293624
 21
-27.78333868141413
 31
0.0
  0
LINE
  5
345
330
1F
100
AcDbEntity
  8
2
  6
CONTINUOUS
370
25
 62
7
100
AcDbLine
 10
0.1257161046929684
 20
-27.95226275093859
 30
0.0
 11
0.1885741570394531
 21
-27.88940469859211
 31
0.0
  0
LINE
  5
346
330
1F
100
AcDbEntity
  8
2
  6
CONTINUOUS
370
25
 62
7
100
AcDbLine
 10
0.0758892449950438
 20
-27.91194168100099
 30
0.0
 11
0.1138338674925659
 21
-27.94988630349851
 31
0.0
  0
LINE
  5
347
330
1F
100
AcDbEntity
  8
2
  6
CONTINUOUS
370
25
 62
7
100
AcDbLine
 10
0.429442635588321
 20
-27.84123100288233
 30
0.0
 11
0.6441639533824827
 21
-28.0559523206765
 31
0.0
  0
LINE
  5
348
330
1F
100
AcDbEntity
  8
2
  6
CONTINUOUS
370
25
 62
7
100
AcDbLine
 10
0.7829960261815955
 20
-27.77052032476368
 30
0.0
 11
1.174494039272395
 21
-28.16201833785448
 31
0.0
  0
LINE
  5
349
330
1F
100
AcDbEntity
  8
2
  6
CONTINUOUS
370
25
 62
7
100
AcDbLine
 10
1.13654941677487
 20
-27.69980964664503
 30
0.0
 11
1.704824125162308
 21
-28.26808435503246
 31
0.0
  0
LINE
  5
34A
330
1F
100
AcDbEntity
  8
2
  6
CONTINUOUS
370
25
 62
7
100
AcDbLine
 10
1.490102807368145
 20
-27.62909896852637
 30
0.0
 11
2.235154211052222
 21
-28.37415037221044
 31
0.0
  0
LINE
  5
34B
330
1F
100
AcDbEntity
  8
2
  6
CONTINUOUS
370
25
 62
7
100
AcDbLine
 10
1.84365619796142
 20
-27.55838829040772
 30
0.0
 11
2.765484296942136
 21
-28.48021638938843
 31
0.0
  0
LINE
  5
34C
330
1F
100
AcDbEntity
  8
2
  6
CONTINUOUS
370
25
 62
7
100
AcDbLine
 10
2.197209588554695
 20
-27.48767761228906
 30
0.0
 11
3.29581438283205
 21
-28.58628240656641
 31
0.0
  0
LINE
  5
34D
330
1F
100
AcDbEntity
  8
2
  6
CONTINUOUS
370
25
 62
7
100
AcDbLine
 10
2.550762979147971
 20
-27.4169669341704
 30
0.0
 11
3.826144468721965
 21
-28.69234842374439
 31
0.0
  0
LINE
  5
34E
330
1F
100
AcDbEntity
  8
2
  6
CONTINUOUS
370
25
 62
7
100
AcDbLine
 10
2.904316369741246
 20
-27.34625625605175
 30
0.0
 11
4.356474554611881
 21
-28.79841444092238
 31
0.0
  0
LINE
  5
34F
330
1F
100
AcDbEntity
  8
2
  6
CONTINUOUS
370
25
 62
7
100
AcDbLine
 10
3.257869760334518
 20
-27.27554557793309
 30
0.0
 11
4.886804640501791
 21
-28.90448045810036
 31
0.0
  0
LINE
  5
350
330
1F
100
AcDbEntity
  8
2
  6
CONTINUOUS
370
25
 62
7
100
AcDbLine
 10
3.611423150927793
 20
-27.20483489981444
 30
0.0
 11
5.0
 21
-28.59341174888664
 31
0.0
  0
LINE
  5
351
330
1F
100
AcDbEntity
  8
2
  6
CONTINUOUS
370
25
 62
7
100
AcDbLine
 10
3.964976541521068
 20
-27.13412422169579
 30
0.0
 11
5.0
 21
-28.16914768017471
 31
0.0
  0
LINE
  5
352
330
1F
100
AcDbEntity
  8
2
  6
CONTINUOUS
370
25
 62
7
100
AcDbLine
 10
4.31852993211434
 20
-27.06341354357713
 30
0.0
 11
5.0
 21
-27.74488361146279
 31
0.0
  0
LINE
  5
353
330
1F
100
AcDbEntity
  8
2
  6
CONTINUOUS
370
25
 62
7
100
AcDbLine
 10
4.672083322707615
 20
-26.99270286545848
 30
0.0
 11
5.0
 21
-27.32061954275086
 31
0.0
  0
LINE
  5
354
330
1F
100
AcDbEntity
  8
2
  6
CONTINUOUS
370
25
 62
7
100
AcDbLine
 10
20.0
 20
-27.92711953
 30
0.0
 11
15.0
 21
-28.92711953
 31
0.0
  0
LINE
  5
355
330
1F
100
AcDbEntity
  8
2
  6
CONTINUOUS
370
25
 62
7
100
AcDbLine
 10
15.0
 20
-28.92711953
 30
0.0
 11
15.0
 21
-26.92711953
 31
0.0
  0
LINE
  5
356
330
1F
100
AcDbEntity
  8
2
  6
CONTINUOUS
370
25
 62
7
100
AcDbLine
 10
15.0
 20
-26.92711953
 30
0.0
 11
20.0
 21
-27.92711953
 31
0.0
  0
LINE
  5
357
330
1F
100
AcDbEntity
  8
2
  6
CONTINUOUS
370
25
 62
7
100
AcDbLine
 10
19.96065209568158
 20
-27.93498911086368
 30
0.0
 11
19.97376806378772
 21
-27.92187314275754
 31
0.0
  0
LINE
  5
358
330
1F
100
AcDbEntity
  8
2
  6
CONTINUOUS
370
25
 62
7
100
AcDbLine
 10
19.43032200979166
 20
-28.04105512804167
 30
0.0
 11
19.62021467319444
 21
-27.85116246463889
 31
0.0
  0
LINE
  5
359
330
1F
100
AcDbEntity
  8
2
  6
CONTINUOUS
370
25
 62
7
100
AcDbLine
 10
18.89999192390174
 20
-28.14712114521965
 30
0.0
 11
19.26666128260117
 21
-27.78045178652023
 31
0.0
  0
LINE
  5
35A
330
1F
100
AcDbEntity
  8
2
  6
CONTINUOUS
370
25
 62
7
100
AcDbLine
 10
18.36966183801184
 20
-28.25318716239763
 30
0.0
 11
18.91310789200789
 21
-27.70974110840158
 31
0.0
  0
LINE
  5
35B
330
1F
100
AcDbEntity
  8
2
  6
CONTINUOUS
370
25
 62
7
100
AcDbLine
 10
17.83933175212193
 20
-28.35925317957561
 30
0.0
 11
18.55955450141462
 21
-27.63903043028292
 31
0.0
  0
LINE
  5
35C
330
1F
100
AcDbEntity
  8
2
  6
CONTINUOUS
370
25
 62
7
100
AcDbLine
 10
17.30900166623201
 20
-28.4653191967536
 30
0.0
 11
18.20600111082134
 21
-27.56831975216427
 31
0.0
  0
LINE
  5
35D
330
1F
100
AcDbEntity
  8
2
  6
CONTINUOUS
370
25
 62
7
100
AcDbLine
 10
16.7786715803421
 20
-28.57138521393158
 30
0.0
 11
17.85244772022807
 21
-27.49760907404561
 31
0.0
  0
LINE
  5
35E
330
1F
100
AcDbEntity
  8
2
  6
CONTINUOUS
370
25
 62
7
100
AcDbLine
 10
16.24834149445218
 20
-28.67745123110956
 30
0.0
 11
17.49889432963479
 21
-27.42689839592696
 31
0.0
  0
LINE
  5
35F
330
1F
100
AcDbEntity
  8
2
  6
CONTINUOUS
370
25
 62
7
100
AcDbLine
 10
15.71801140856227
 20
-28.78351724828754
 30
0.0
 11
17.14534093904152
 21
-27.3561877178083
 31
0.0
  0
LINE
  5
360
330
1F
100
AcDbEntity
  8
2
  6
CONTINUOUS
370
25
 62
7
100
AcDbLine
 10
15.18768132267236
 20
-28.88958326546553
 30
0.0
 11
16.79178754844824
 21
-27.28547703968965
 31
0.0
  0
LINE
  5
361
330
1F
100
AcDbEntity
  8
2
  6
CONTINUOUS
370
25
 62
7
100
AcDbLine
 10
15.0
 20
-28.65300051942596
 30
0.0
 11
16.43823415785497
 21
-27.21476636157099
 31
0.0
  0
LINE
  5
362
330
1F
100
AcDbEntity
  8
2
  6
CONTINUOUS
370
25
 62
7
100
AcDbLine
 10
15.0
 20
-28.22873645071403
 30
0.0
 11
16.0846807672617
 21
-27.14405568345234
 31
0.0
  0
LINE
  5
363
330
1F
100
AcDbEntity
  8
2
  6
CONTINUOUS
370
25
 62
7
100
AcDbLine
 10
15.0
 20
-27.80447238200211
 30
0.0
 11
15.73112737666843
 21
-27.07334500533369
 31
0.0
  0
LINE
  5
364
330
1F
100
AcDbEntity
  8
2
  6
CONTINUOUS
370
25
 62
7
100
AcDbLine
 10
15.0
 20
-27.38020831329018
 30
0.0
 11
15.37757398607515
 21
-27.00263432721503
 31
0.0
  0
LINE
  5
365
330
1F
100
AcDbEntity
  8
2
  6
CONTINUOUS
370
25
 62
7
100
AcDbLine
 10
15.0
 20
-26.95594424457825
 30
0.0
 11
15.02402059548188
 21
-26.93192364909638
 31
0.0
  0
LINE
  5
366
330
1F
100
AcDbEntity
  8
2
  6
CONTINUOUS
370
25
 62
7
100
AcDbLine
 10
15.0
 20
-28.53382297834732
 30
0.0
 11
15.32774712637723
 21
-28.86157010472455
 31
0.0
  0
LINE
  5
367
330
1F
100
AcDbEntity
  8
2
  6
CONTINUOUS
370
25
 62
7
100
AcDbLine
 10
15.0
 20
-28.10955890963539
 30
0.0
 11
15.68130051697051
 21
-28.7908594266059
 31
0.0
  0
LINE
  5
368
330
1F
100
AcDbEntity
  8
2
  6
CONTINUOUS
370
25
 62
7
100
AcDbLine
 10
15.0
 20
-27.68529484092346
 30
0.0
 11
16.03485390756379
 21
-28.72014874848725
 31
0.0
  0
LINE
  5
369
330
1F
100
AcDbEntity
  8
2
  6
CONTINUOUS
370
25
 62
7
100
AcDbLine
 10
15.0
 20
-27.26103077221153
 30
0.0
 11
16.38840729815706
 21
-28.64943807036858
 31
0.0
  0
LINE
  5
36A
330
1F
100
AcDbEntity
  8
2
  6
CONTINUOUS
370
25
 62
7
100
AcDbLine
 10
15.1129410331255
 20
-26.9497077366251
 30
0.0
 11
16.74196068875033
 21
-28.57872739224993
 31
0.0
  0
LINE
  5
36B
330
1F
100
AcDbEntity
  8
2
  6
CONTINUOUS
370
25
 62
7
100
AcDbLine
 10
15.64327111901541
 20
-27.05577375380308
 30
0.0
 11
17.09551407934361
 21
-28.50801671413128
 31
0.0
  0
LINE
  5
36C
330
1F
100
AcDbEntity
  8
2
  6
CONTINUOUS
370
25
 62
7
100
AcDbLine
 10
16.17360120490532
 20
-27.16183977098106
 30
0.0
 11
17.44906746993689
 21
-28.43730603601262
 31
0.0
  0
LINE
  5
36D
330
1F
100
AcDbEntity
  8
2
  6
CONTINUOUS
370
25
 62
7
100
AcDbLine
 10
16.70393129079524
 20
-27.26790578815905
 30
0.0
 11
17.80262086053016
 21
-28.36659535789397
 31
0.0
  0
LINE
  5
36E
330
1F
100
AcDbEntity
  8
2
  6
CONTINUOUS
370
25
 62
7
100
AcDbLine
 10
17.23426137668515
 20
-27.37397180533703
 30
0.0
 11
18.15617425112343
 21
-28.29588467977531
 31
0.0
  0
LINE
  5
36F
330
1F
100
AcDbEntity
  8
2
  6
CONTINUOUS
370
25
 62
7
100
AcDbLine
 10
17.76459146257506
 20
-27.48003782251501
 30
0.0
 11
18.50972764171671
 21
-28.22517400165665
 31
0.0
  0
LINE
  5
370
330
1F
100
AcDbEntity
  8
2
  6
CONTINUOUS
370
25
 62
7
100
AcDbLine
 10
18.29492154846497
 20
-27.58610383969299
 30
0.0
 11
18.86328103230998
 21
-28.154463323538
 31
0.0
  0
LINE
  5
371
330
1F
100
AcDbEntity
  8
2
  6
CONTINUOUS
370
25
 62
7
100
AcDbLine
 10
18.82525163435488
 20
-27.69216985687097
 30
0.0
 11
19.21683442290326
 21
-28.08375264541935
 31
0.0
  0
LINE
  5
372
330
1F
100
AcDbEntity
  8
2
  6
CONTINUOUS
370
25
 62
7
100
AcDbLine
 10
19.3555817202448
 20
-27.79823587404896
 30
0.0
 11
19.57038781349653
 21
-28.01304196730069
 31
0.0
  0
LINE
  5
373
330
1F
100
AcDbEntity
  8
2
  6
CONTINUOUS
370
25
 62
7
100
AcDbLine
 10
19.88591180613471
 20
-27.90430189122694
 30
0.0
 11
19.92394120408981
 21
-27.94233128918204
 31
0.0
  0
TEXT
  5
374
330
1F
100
AcDbEntity
  8
2
  6
CONTINUOUS
370
25
 62
7
100
AcDbText
 10
7.375
 20
-26.42711953
 30
0.0
 40
3.5
  1
20
 72
     1
 11
10.0
 21
-26.42711953
 31
0.0
100
AcDbText
  0
LINE
  5
375
330
1F
100
AcDbEntity
  8
SK2
  6
CONTINUOUS
370
25
 62
7
100
AcDbLine
 10
-0.0000099999999996
 20
-14.4
 30
0.0
 11
-36.00001
 21
-14.4
 31
0.0
  0
LINE
  5
376
330
1F
100
AcDbEntity
  8
SK2
  6
CONTINUOUS
370
25
 62
7
100
AcDbLine
 10
-36.00001
 20
14.4
 30
0.0
 11
-0.0000100000000032
 21
14.4
 31
0.0
  0
LINE
  5
377
330
1F
100
AcDbEntity
  8
SK2
  6
CONTINUOUS
370
25
 62
7
100
AcDbLine
 10
-35.00001
 20
-14.4
 30
0.0
 11
-35.00001
 21
14.4
 31
0.0
  0
LINE
  5
378
330
1F
100
AcDbEntity
  8
SK2
  6
CONTINUOUS
370
25
 62
7
100
AcDbLine
 10
-35.00001
 20
-14.4
 30
0.0
 11
-36.00001
 21
-9.4
 31
0.0
  0
LINE
  5
379
330
1F
100
AcDbEntity
  8
SK2
  6
CONTINUOUS
370
25
 62
7
100
AcDbLine
 10
-36.00001
 20
-9.4
 30
0.0
 11
-34.00001
 21
-9.4
 31
0.0
  0
LINE
  5
37A
330
1F
100
AcDbEntity
  8
SK2
  6
CONTINUOUS
370
25
 62
7
100
AcDbLine
 10
-34.00001
 20
-9.4
 30
0.0
 11
-35.00001
 21
-14.4
 31
0.0
  0
LINE
  5
37B
330
1F
100
AcDbEntity
  8
SK2
  6
CONTINUOUS
370
25
 62
7
100
AcDbLine
 10
-35.03149822781408
 20
-14.24255886092963
 30
0.0
 11
-34.95277765827889
 21
-14.16383829139444
 31
0.0
  0
LINE
  5
37C
330
1F
100
AcDbEntity
  8
SK2
  6
CONTINUOUS
370
25
 62
7
100
AcDbLine
 10
-35.10220890593273
 20
-13.88900547033636
 30
0.0
 11
-34.84671164110091
 21
-13.63350820550453
 31
0.0
  0
LINE
  5
37D
330
1F
100
AcDbEntity
  8
SK2
  6
CONTINUOUS
370
25
 62
7
100
AcDbLine
 10
-35.17291958405139
 20
-13.53545207974308
 30
0.0
 11
-34.74064562392292
 21
-13.10317811961461
 31
0.0
  0
LINE
  5
37E
330
1F
100
AcDbEntity
  8
SK2
  6
CONTINUOUS
370
25
 62
7
100
AcDbLine
 10
-35.24363026217004
 20
-13.1818986891498
 30
0.0
 11
-34.63457960674495
 21
-12.57284803372471
 31
0.0
  0
LINE
  5
37F
330
1F
100
AcDbEntity
  8
SK2
  6
CONTINUOUS
370
25
 62
7
100
AcDbLine
 10
-35.31434094028869
 20
-12.82834529855652
 30
0.0
 11
-34.52851358956697
 21
-12.04251794783481
 31
0.0
  0
LINE
  5
380
330
1F
100
AcDbEntity
  8
SK2
  6
CONTINUOUS
370
25
 62
7
100
AcDbLine
 10
-35.38505161840735
 20
-12.47479190796326
 30
0.0
 11
-34.42244757238898
 21
-11.51218786194489
 31
0.0
  0
LINE
  5
381
330
1F
100
AcDbEntity
  8
SK2
  6
CONTINUOUS
370
25
 62
7
100
AcDbLine
 10
-35.455762296526
 20
-12.12123851736998
 30
0.0
 11
-34.316381555211
 21
-10.98185777605498
 31
0.0
  0
LINE
  5
382
330
1F
100
AcDbEntity
  8
SK2
  6
CONTINUOUS
370
25
 62
7
100
AcDbLine
 10
-35.52647297464466
 20
-11.7676851267767
 30
0.0
 11
-34.21031553803302
 21
-10.45152769016507
 31
0.0
  0
LINE
  5
383
330
1F
100
AcDbEntity
  8
SK2
  6
CONTINUOUS
370
25
 62
7
100
AcDbLine
 10
-35.59718365276332
 20
-11.41413173618343
 30
0.0
 11
-34.10424952085503
 21
-9.921197604275154
 31
0.0
  0
LINE
  5
384
330
1F
100
AcDbEntity
  8
SK2
  6
CONTINUOUS
370
25
 62
7
100
AcDbLine
 10
-35.66789433088197
 20
-11.06057834559016
 30
0.0
 11
-34.0073159852918
 21
-9.399999999999999
 31
0.0
  0
LINE
  5
385
330
1F
100
AcDbEntity
  8
SK2
  6
CONTINUOUS
370
25
 62
7
100
AcDbLine
 10
-35.73860500900063
 20
-10.70702495499689
 30
0.0
 11
-34.43158005400374
 21
-9.400000000000002
 31
0.0
  0
LINE
  5
386
330
1F
100
AcDbEntity
  8
SK2
  6
CONTINUOUS
370
25
 62
7
100
AcDbLine
 10
-35.80931568711929
 20
-10.35347156440362
 30
0.0
 11
-34.85584412271566
 21
-9.399999999999999
 31
0.0
  0
LINE
  5
387
330
1F
100
AcDbEntity
  8
SK2
  6
CONTINUOUS
370
25
 62
7
100
AcDbLine
 10
-35.88002636523794
 20
-9.99991817381034
 30
0.0
 11
-35.28010819142759
 21
-9.400000000000002
 31
0.0
  0
LINE
  5
388
330
1F
100
AcDbEntity
  8
SK2
  6
CONTINUOUS
370
25
 62
7
100
AcDbLine
 10
-35.95073704335659
 20
-9.646364783217066
 30
0.0
 11
-35.70437226013952
 21
-9.399999999999999
 31
0.0
  0
LINE
  5
389
330
1F
100
AcDbEntity
  8
SK2
  6
CONTINUOUS
370
25
 62
7
100
AcDbLine
 10
-35.06392103207562
 20
-14.08044483962193
 30
0.0
 11
-34.95740264528293
 21
-14.18696322641463
 31
0.0
  0
LINE
  5
38A
330
1F
100
AcDbEntity
  8
SK2
  6
CONTINUOUS
370
25
 62
7
100
AcDbLine
 10
-35.1699870492536
 20
-13.55011475373203
 30
0.0
 11
-34.88669196716427
 21
-13.83340983582135
 31
0.0
  0
LINE
  5
38B
330
1F
100
AcDbEntity
  8
SK2
  6
CONTINUOUS
370
25
 62
7
100
AcDbLine
 10
-35.27605306643159
 20
-13.0197846678421
 30
0.0
 11
-34.81598128904562
 21
-13.47985644522807
 31
0.0
  0
LINE
  5
38C
330
1F
100
AcDbEntity
  8
SK2
  6
CONTINUOUS
370
25
 62
7
100
AcDbLine
 10
-35.38211908360957
 20
-12.4894545819522
 30
0.0
 11
-34.74527061092697
 21
-13.1263030546348
 31
0.0
  0
LINE
  5
38D
330
1F
100
AcDbEntity
  8
SK2
  6
CONTINUOUS
370
25
 62
7
100
AcDbLine
 10
-35.48818510078755
 20
-11.95912449606229
 30
0.0
 11
-34.67455993280831
 21
-12.77274966404153
 31
0.0
  0
LINE
  5
38E
330
1F
100
AcDbEntity
  8
SK2
  6
CONTINUOUS
370
25
 62
7
100
AcDbLine
 10
-35.59425111796553
 20
-11.42879441017237
 30
0.0
 11
-34.60384925468965
 21
-12.41919627344826
 31
0.0
  0
LINE
  5
38F
330
1F
100
AcDbEntity
  8
SK2
  6
CONTINUOUS
370
25
 62
7
100
AcDbLine
 10
-35.70031713514351
 20
-10.89846432428246
 30
0.0
 11
-34.533138576571
 21
-12.06564288285498
 31
0.0
  0
LINE
  5
390
330
1F
100
AcDbEntity
  8
SK2
  6
CONTINUOUS
370
25
 62
7
100
AcDbLine
 10
-35.80638315232149
 20
-10.36813423839254
 30
0.0
 11
-34.46242789845235
 21
-11.7120894922617
 31
0.0
  0
LINE
  5
391
330
1F
100
AcDbEntity
  8
SK2
  6
CONTINUOUS
370
25
 62
7
100
AcDbLine
 10
-35.91244916949948
 20
-9.837804152502628
 30
0.0
 11
-34.39171722033369
 21
-11.35853610166843
 31
0.0
  0
LINE
  5
392
330
1F
100
AcDbEntity
  8
SK2
  6
CONTINUOUS
370
25
 62
7
100
AcDbLine
 10
-35.92598925329018
 20
-9.399999999999999
 30
0.0
 11
-34.32100654221503
 21
-11.00498271107515
 31
0.0
  0
LINE
  5
393
330
1F
100
AcDbEntity
  8
SK2
  6
CONTINUOUS
370
25
 62
7
100
AcDbLine
 10
-35.50172518457824
 20
-9.399999999999999
 30
0.0
 11
-34.25029586409637
 21
-10.65142932048187
 31
0.0
  0
LINE
  5
394
330
1F
100
AcDbEntity
  8
SK2
  6
CONTINUOUS
370
25
 62
7
100
AcDbLine
 10
-35.07746111586631
 20
-9.399999999999999
 30
0.0
 11
-34.17958518597772
 21
-10.2978759298886
 31
0.0
  0
LINE
  5
395
330
1F
100
AcDbEntity
  8
SK2
  6
CONTINUOUS
370
25
 62
7
100
AcDbLine
 10
-34.65319704715439
 20
-9.399999999999999
 30
0.0
 11
-34.10887450785907
 21
-9.944322539295321
 31
0.0
  0
LINE
  5
396
330
1F
100
AcDbEntity
  8
SK2
  6
CONTINUOUS
370
25
 62
7
100
AcDbLine
 10
-34.22893297844246
 20
-9.399999999999999
 30
0.0
 11
-34.03816382974041
 21
-9.590769148702044
 31
0.0
  0
LINE
  5
397
330
1F
100
AcDbEntity
  8
SK2
  6
CONTINUOUS
370
25
 62
7
100
AcDbLine
 10
-35.00001
 20
14.4
 30
0.0
 11
-34.00001
 21
9.4
 31
0.0
  0
LINE
  5
398
330
1F
100
AcDbEntity
  8
SK2
  6
CONTINUOUS
370
25
 62
7
100
AcDbLine
 10
-34.00001
 20
9.4
 30
0.0
 11
-36.00001
 21
9.4
 31
0.0
  0
LINE
  5
399
330
1F
100
AcDbEntity
  8
SK2
  6
CONTINUOUS
370
25
 62
7
100
AcDbLine
 10
-36.00001
 20
9.4
 30
0.0
 11
-35.00001
 21
14.4
 31
0.0
  0
LINE
  5
39A
330
1F
100
AcDbEntity
  8
SK2
  6
CONTINUOUS
370
25
 62
7
100
AcDbLine
 10
-34.29919907732862
 20
9.399999999999999
 30
0.0
 11
-34.04987484622144
 21
9.64932423110718
 31
0.0
  0
LINE
  5
39B
330
1F
100
AcDbEntity
  8
SK2
  6
CONTINUOUS
370
25
 62
7
100
AcDbLine
 10
-34.72346314604055
 20
9.399999999999999
 30
0.0
 11
-34.12058552434009
 21
10.00287762170046
 31
0.0
  0
LINE
  5
39C
330
1F
100
AcDbEntity
  8
SK2
  6
CONTINUOUS
370
25
 62
7
100
AcDbLine
 10
-35.14772721475248
 20
9.399999999999999
 30
0.0
 11
-34.19129620245875
 21
10.35643101229372
 31
0.0
  0
LINE
  5
39D
330
1F
100
AcDbEntity
  8
SK2
  6
CONTINUOUS
370
25
 62
7
100
AcDbLine
 10
-35.57199128346441
 20
9.399999999999999
 30
0.0
 11
-34.2620068805774
 21
10.70998440288701
 31
0.0
  0
LINE
  5
39E
330
1F
100
AcDbEntity
  8
SK2
  6
CONTINUOUS
370
25
 62
7
100
AcDbLine
 10
-35.99625535217634
 20
9.399999999999999
 30
0.0
 11
-34.33271755869606
 21
11.06353779348027
 31
0.0
  0
LINE
  5
39F
330
1F
100
AcDbEntity
  8
SK2
  6
CONTINUOUS
370
25
 62
7
100
AcDbLine
 10
-35.89488264477794
 20
9.92563677611033
 30
0.0
 11
-34.40342823681472
 21
11.41709118407355
 31
0.0
  0
LINE
  5
3A0
330
1F
100
AcDbEntity
  8
SK2
  6
CONTINUOUS
370
25
 62
7
100
AcDbLine
 10
-35.78881662759996
 20
10.45596686200024
 30
0.0
 11
-34.47413891493336
 21
11.77064457466683
 31
0.0
  0
LINE
  5
3A1
330
1F
100
AcDbEntity
  8
SK2
  6
CONTINUOUS
370
25
 62
7
100
AcDbLine
 10
-35.68275061042197
 20
10.98629694789016
 30
0.0
 11
-34.54484959305202
 21
12.12419796526011
 31
0.0
  0
LINE
  5
3A2
330
1F
100
AcDbEntity
  8
SK2
  6
CONTINUOUS
370
25
 62
7
100
AcDbLine
 10
-35.57668459324399
 20
11.51662703378006
 30
0.0
 11
-34.61556027117068
 21
12.47775135585337
 31
0.0
  0
LINE
  5
3A3
330
1F
100
AcDbEntity
  8
SK2
  6
CONTINUOUS
370
25
 62
7
100
AcDbLine
 10
-35.470618576066
 20
12.04695711966998
 30
0.0
 11
-34.68627094928934
 21
12.83130474644664
 31
0.0
  0
LINE
  5
3A4
330
1F
100
AcDbEntity
  8
SK2
  6
CONTINUOUS
370
25
 62
7
100
AcDbLine
 10
-35.36455255888803
 20
12.57728720555988
 30
0.0
 11
-34.75698162740798
 21
13.18485813703992
 31
0.0
  0
LINE
  5
3A5
330
1F
100
AcDbEntity
  8
SK2
  6
CONTINUOUS
370
25
 62
7
100
AcDbLine
 10
-35.25848654171004
 20
13.1076172914498
 30
0.0
 11
-34.82769230552664
 21
13.53841152763319
 31
0.0
  0
LINE
  5
3A6
330
1F
100
AcDbEntity
  8
SK2
  6
CONTINUOUS
370
25
 62
7
100
AcDbLine
 10
-35.15242052453206
 20
13.6379473773397
 30
0.0
 11
-34.8984029836453
 21
13.89196491822646
 31
0.0
  0
LINE
  5
3A7
330
1F
100
AcDbEntity
  8
SK2
  6
CONTINUOUS
370
25
 62
7
100
AcDbLine
 10
-35.04635450735407
 20
14.16827746322961
 30
0.0
 11
-34.96911366176396
 21
14.24551830881973
 31
0.0
  0
LINE
  5
3A8
330
1F
100
AcDbEntity
  8
SK2
  6
CONTINUOUS
370
25
 62
7
100
AcDbLine
 10
-35.99599932095023
 20
9.420053395248896
 30
0.0
 11
-35.97594592570133
 21
9.400000000000002
 31
0.0
  0
LINE
  5
3A9
330
1F
100
AcDbEntity
  8
SK2
  6
CONTINUOUS
370
25
 62
7
100
AcDbLine
 10
-35.92528864283157
 20
9.77360678584217
 30
0.0
 11
-35.5516818569894
 21
9.399999999999999
 31
0.0
  0
LINE
  5
3AA
330
1F
100
AcDbEntity
  8
SK2
  6
CONTINUOUS
370
25
 62
7
100
AcDbLine
 10
-35.85457796471291
 20
10.12716017643544
 30
0.0
 11
-35.12741778827747
 21
9.400000000000002
 31
0.0
  0
LINE
  5
3AB
330
1F
100
AcDbEntity
  8
SK2
  6
CONTINUOUS
370
25
 62
7
100
AcDbLine
 10
-35.78386728659426
 20
10.48071356702872
 30
0.0
 11
-34.70315371956553
 21
9.399999999999999
 31
0.0
  0
LINE
  5
3AC
330
1F
100
AcDbEntity
  8
SK2
  6
CONTINUOUS
370
25
 62
7
100
AcDbLine
 10
-35.71315660847561
 20
10.834266957622
 30
0.0
 11
-34.27888965085361
 21
9.400000000000002
 31
0.0
  0
LINE
  5
3AD
330
1F
100
AcDbEntity
  8
SK2
  6
CONTINUOUS
370
25
 62
7
100
AcDbLine
 10
-35.64244593035695
 20
11.18782034821527
 30
0.0
 11
-34.03635610446459
 21
9.581730522322907
 31
0.0
  0
LINE
  5
3AE
330
1F
100
AcDbEntity
  8
SK2
  6
CONTINUOUS
370
25
 62
7
100
AcDbLine
 10
-35.57173525223829
 20
11.54137373880854
 30
0.0
 11
-34.14242212164257
 21
10.11206060821282
 31
0.0
  0
LINE
  5
3AF
330
1F
100
AcDbEntity
  8
SK2
  6
CONTINUOUS
370
25
 62
7
100
AcDbLine
 10
-35.50102457411964
 20
11.89492712940182
 30
0.0
 11
-34.24848813882055
 21
10.64239069410273
 31
0.0
  0
LINE
  5
3B0
330
1F
100
AcDbEntity
  8
SK2
  6
CONTINUOUS
370
25
 62
7
100
AcDbLine
 10
-35.43031389600099
 20
12.24848051999511
 30
0.0
 11
-34.35455415599853
 21
11.17272077999264
 31
0.0
  0
LINE
  5
3B1
330
1F
100
AcDbEntity
  8
SK2
  6
CONTINUOUS
370
25
 62
7
100
AcDbLine
 10
-35.35960321788233
 20
12.60203391058837
 30
0.0
 11
-34.46062017317652
 21
11.70305086588256
 31
0.0
  0
LINE
  5
3B2
330
1F
100
AcDbEntity
  8
SK2
  6
CONTINUOUS
370
25
 62
7
100
AcDbLine
 10
-35.28889253976367
 20
12.95558730118165
 30
0.0
 11
-34.5666861903545
 21
12.23338095177247
 31
0.0
  0
LINE
  5
3B3
330
1F
100
AcDbEntity
  8
SK2
  6
CONTINUOUS
370
25
 62
7
100
AcDbLine
 10
-35.21818186164502
 20
13.30914069177493
 30
0.0
 11
-34.67275220753248
 21
12.76371103766239
 31
0.0
  0
LINE
  5
3B4
330
1F
100
AcDbEntity
  8
SK2
  6
CONTINUOUS
370
25
 62
7
100
AcDbLine
 10
-35.14747118352636
 20
13.6626940823682
 30
0.0
 11
-34.77881822471046
 21
13.2940411235523
 31
0.0
  0
LINE
  5
3B5
330
1F
100
AcDbEntity
  8
SK2
  6
CONTINUOUS
370
25
 62
7
100
AcDbLine
 10
-35.07676050540771
 20
14.01624747296147
 30
0.0
 11
-34.88488424188844
 21
13.8243712094422
 31
0.0
  0
LINE
  5
3B6
330
1F
100
AcDbEntity
  8
SK2
  6
CONTINUOUS
370
25
 62
7
100
AcDbLine
 10
-35.00604982728905
 20
14.36980086355475
 30
0.0
 11
-34.99095025906642
 21
14.35470129533212
 31
0.0
  0
TEXT
  5
3B7
330
1F
100
AcDbEntity
  8
SK2
  6
CONTINUOUS
370
25
 62
7
100
AcDbText
 10
-36.50001
 20
-2.975
 30
0.0
 40
3.5
  1
28.8
 50
90.0
 72
     1
 11
-36.50001
 21
2.275
 31
0.0
100
AcDbText
  0
CIRCLE
  5
3B8
330
1F
100
AcDbEntity
  8
SK2
  6
CONTINUOUS
370
25
 62
7
100
AcDbCircle
 10
-38.25001
 20
-5.775
 30
0.0
 40
1.4
  0
LINE
  5
3B9
330
1F
100
AcDbEntity
  8
SK2
  6
CONTINUOUS
370
25
 62
7
100
AcDbLine
 10
-36.85001
 20
-7.174999999999999
 30
0.0
 11
-39.65001
 21
-4.374999999999998
 31
0.0
  0
LINE
  5
3BA
330
1F
100
AcDbEntity
  8
CUT
  6
CONTINUOUS
370
25
 62
1
100
AcDbLine
 10
39.5
 20
16.0
 30
0.0
 11
28.31095178310505
 21
16.0
 31
0.0
  0
ARC
  5
3BB
330
1F
100
AcDbEntity
  8
CUT
  6
CONTINUOUS
370
25
 62
1
100
AcDbCircle
 10
28.31095178327826
 20
15.4999999999
 30
0.0
 40
0.5
100
AcDbArc
 50
90.00000001984789
 51
209.9999999801521
  0
LINE
  5
3BC
330
1F
100
AcDbEntity
  8
CUT
  6
CONTINUOUS
370
25
 62
1
100
AcDbLine
 10
27.87793908121283
 20
15.25
 30
0.0
 11
33.47246318966031
 21
5.559999999999997
 31
0.0
  0
ARC
  5
3BD
330
1F
100
AcDbEntity
  8
CUT
  6
CONTINUOUS
370
25
 62
1
100
AcDbCircle
 10
33.90547589155253
 20
5.810000000199997
 30
0.0
 40
0.4999999999999989
100
AcDbArc
 50
210.0000000198478
 51
329.9999999801522
  0
LINE
  5
3BE
330
1F
100
AcDbEntity
  8
CUT
  6
CONTINUOUS
370
25
 62
1
100
AcDbLine
 10
34.33848859344474
 20
5.559999999999997
 30
0.0
 11
39.93301270189222
 21
15.25
 31
0.0
  0
ARC
  5
3BF
330
1F
100
AcDbEntity
  8
CUT
  6
CONTINUOUS
370
25
 62
1
100
AcDbCircle
 10
39.4999999998268
 20
15.4999999999
 30
0.0
 40
0.4999999999999961
100
AcDbArc
 50
330.0000000198477
 51
89.99999998015252
  0
LINE
  5
3C0
330
1F
100
AcDbEntity
  8
NOCUT
  6
CONTINUOUS
370
25
 62
7
100
AcDbLine
 10
20.0
 20
0.0
 30
0.0
 11
38.1
 21
0.0
 31
0.0
  0
LINE
  5
3C1
330
1F
100
AcDbEntity
  8
NOCUT
  6
CONTINUOUS
370
25
 62
7
100
AcDbLine
 10
38.1
 20
0.0
 30
0.0
 11
38.1
 21
14.625
 31
0.0
  0
LINE
  5
3C2
330
1F
100
AcDbEntity
  8
NOCUT
  6
CONTINUOUS
370
25
 62
7
100
AcDbLine
 10
38.1
 20
14.625
 30
0.0
 11
37.1
 21
15.625
 31
0.0
  0
LINE
  5
3C3
330
1F
100
AcDbEntity
  8
NOCUT
  6
CONTINUOUS
370
25
 62
7
100
AcDbLine
 10
37.1
 20
15.625
 30
0.0
 11
23.0
 21
15.625
 31
0.0
  0
LINE
  5
3C4
330
1F
100
AcDbEntity
  8
NOCUT
  6
CONTINUOUS
370
25
 62
7
100
AcDbLine
 10
23.0
 20
15.625
 30
0.0
 11
23.0
 21
14.5
 31
0.0
  0
LINE
  5
3C5
330
1F
100
AcDbEntity
  8
NOCUT
  6
CONTINUOUS
370
25
 62
7
100
AcDbLine
 10
23.0
 20
14.5
 30
0.0
 11
20.0
 21
14.4
 31
0.0
  0
LINE
  5
3C6
330
1F
100
AcDbEntity
  8
SK1
  6
CONTINUOUS
370
50
 62
4
100
AcDbLine
 10
0.0
 20
0.0
 30
0.0
 11
2.625
 21
0.0
 31
0.0
  0
LINE
  5
3C7
330
1F
100
AcDbEntity
  8
SK1
  6
CONTINUOUS
370
50
 62
4
100
AcDbLine
 10
0.0
 20
0.0
 30
0.0
 11
0.0
 21
2.625
 31
0.0
  0
ARC
  5
3C8
330
1F
100
AcDbEntity
  8
SK1
  6
CONTINUOUS
370
50
 62
4
100
AcDbCircle
 10
0.0
 20
0.0
 30
0.0
 40
2.625
100
AcDbArc
 50
0.0
 51
90.0
  0
LINE
  5
3C9
330
1F
100
AcDbEntity
  8
SK1
  6
CONTINUOUS
370
50
 62
4
100
AcDbLine
 10
0.0
 20
0.0
 30
0.0
 11
-2.625
 21
0.0
 31
0.0
  0
ARC
  5
3CA
330
1F
100
AcDbEntity
  8
SK1
  6
CONTINUOUS
370
50
 62
4
100
AcDbCircle
 10
0.0
 20
0.0
 30
0.0
 40
2.625
100
AcDbArc
 50
180.0
 51
270.0
  0
LINE
  5
3CB
330
1F
100
AcDbEntity
  8
SK1
  6
CONTINUOUS
370
50
 62
4
100
AcDbLine
 10
0.0
 20
-2.625
 30
0.0
 11
0.0
 21
0.0
 31
0.0
  0
ARC
  5
3CC
330
1F
100
AcDbEntity
  8
SK1
  6
CONTINUOUS
370
50
 62
4
100
AcDbCircle
 10
0.0
 20
0.0
 30
0.0
 40
2.625
100
AcDbArc
 50
270.0
 51
0.0
  0
ARC
  5
3CD
330
1F
100
AcDbEntity
  8
SK1
  6
CONTINUOUS
370
50
 62
4
100
AcDbCircle
 10
0.0
 20
0.0
 30
0.0
 40
2.625
100
AcDbArc
 50
90.0
 51
180.0
  0
LINE
  5
3CE
330
1F
100
AcDbEntity
  8
SK1
  6
CONTINUOUS
370
50
 62
4
100
AcDbLine
 10
-0.3342427780731856
 20
-2.60347067499975
 30
0.0
 11
0.0
 21
-2.269227896926564
 31
0.0
  0
LINE
  5
3CF
330
1F
100
AcDbEntity
  8
SK1
  6
CONTINUOUS
370
50
 62
4
100
AcDbLine
 10
2.269227896926564
 20
0.0
 30
0.0
 11
2.603470674999749
 21
0.3342427780731851
 31
0.0
  0
LINE
  5
3D0
330
1F
100
AcDbEntity
  8
SK1
  6
CONTINUOUS
370
50
 62
4
100
AcDbLine
 10
-0.6460460878531344
 20
-2.544042924656761
 30
0.0
 11
0.0
 21
-1.897996836803626
 31
0.0
  0
LINE
  5
3D1
330
1F
100
AcDbEntity
  8
SK1
  6
CONTINUOUS
370
50
 62
4
100
AcDbLine
 10
1.897996836803626
 20
0.0
 30
0.0
 11
2.544042924656761
 21
0.6460460878531347
 31
0.0
  0
LINE
  5
3D2
330
1F
100
AcDbEntity
  8
SK1
  6
CONTINUOUS
370
50
 62
4
100
AcDbLine
 10
-0.9277765110842455
 20
-2.454542287764935
 30
0.0
 11
0.0
 21
-1.526765776680689
 31
0.0
  0
LINE
  5
3D3
330
1F
100
AcDbEntity
  8
SK1
  6
CONTINUOUS
370
50
 62
4
100
AcDbLine
 10
1.526765776680689
 20
0.0
 30
0.0
 11
2.454542287764935
 21
0.9277765110842457
 31
0.0
  0
LINE
  5
3D4
330
1F
100
AcDbEntity
  8
SK1
  6
CONTINUOUS
370
50
 62
4
100
AcDbLine
 10
-1.18521879321747
 20
-2.340753509775221
 30
0.0
 11
0.0
 21
-1.155534716557751
 31
0.0
  0
LINE
  5
3D5
330
1F
100
AcDbEntity
  8
SK1
  6
CONTINUOUS
370
50
 62
4
100
AcDbLine
 10
1.155534716557751
 20
0.0
 30
0.0
 11
2.340753509775222
 21
1.185218793217471
 31
0.0
  0
LINE
  5
3D6
330
1F
100
AcDbEntity
  8
SK1
  6
CONTINUOUS
370
50
 62
4
100
AcDbLine
 10
-1.421734561544524
 20
-2.206038217979337
 30
0.0
 11
0.0
 21
-0.7843036564348136
 31
0.0
  0
LINE
  5
3D7
330
1F
100
AcDbEntity
  8
SK1
  6
CONTINUOUS
370
50
 62
4
100
AcDbLine
 10
0.7843036564348136
 20
0.0
 30
0.0
 11
2.206038217979337
 21
1.421734561544524
 31
0.0
  0
LINE
  5
3D8
330
1F
100
AcDbEntity
  8
SK1
  6
CONTINUOUS
370
50
 62
4
100
AcDbLine
 10
-1.637356888289102
 20
-2.050429484600978
 30
0.0
 11
0.0
 21
-0.413072596311876
 31
0.0
  0
LINE
  5
3D9
330
1F
100
AcDbEntity
  8
SK1
  6
CONTINUOUS
370
50
 62
4
100
AcDbLine
 10
0.413072596311876
 20
0.0
 30
0.0
 11
2.050429484600977
 21
1.637356888289101
 31
0.0
  0
LINE
  5
3DA
330
1F
100
AcDbEntity
  8
SK1
  6
CONTINUOUS
370
50
 62
4
100
AcDbLine
 10
-1.834318631927537
 20
-1.876160168116476
 30
0.0
 11
0.0
 21
-0.0418415361889384
 31
0.0
  0
LINE
  5
3DB
330
1F
100
AcDbEntity
  8
SK1
  6
CONTINUOUS
370
50
 62
4
100
AcDbLine
 10
0.0418415361889384
 20
0.0
 30
0.0
 11
1.876160168116476
 21
1.834318631927537
 31
0.0
  0
LINE
  5
3DC
330
1F
100
AcDbEntity
  8
SK1
  6
CONTINUOUS
370
50
 62
4
100
AcDbLine
 10
-2.013240575223679
 20
-1.683851051289679
 30
0.0
 11
-0.3293895239339992
 21
0.0
 31
0.0
  0
LINE
  5
3DD
330
1F
100
AcDbEntity
  8
SK1
  6
CONTINUOUS
370
50
 62
4
100
AcDbLine
 10
0.0
 20
0.3293895239339992
 30
0.0
 11
1.683851051289679
 21
2.013240575223679
 31
0.0
  0
LINE
  5
3DE
330
1F
100
AcDbEntity
  8
SK1
  6
CONTINUOUS
370
50
 62
4
100
AcDbLine
 10
-2.172178381694937
 20
-1.471557797638
 30
0.0
 11
-0.7006205840569368
 21
0.0
 31
0.0
  0
LINE
  5
3DF
330
1F
100
AcDbEntity
  8
SK1
  6
CONTINUOUS
370
50
 62
4
100
AcDbLine
 10
0.0
 20
0.7006205840569368
 30
0.0
 11
1.471557797638
 21
2.172178381694937
 31
0.0
  0
LINE
  5
3E0
330
1F
100
AcDbEntity
  8
SK1
  6
CONTINUOUS
370
50
 62
4
100
AcDbLine
 10
-2.312507112814711
 20
-1.240655468634837
 30
0.0
 11
-1.071851644179874
 21
0.0
 31
0.0
  0
LINE
  5
3E1
330
1F
100
AcDbEntity
  8
SK1
  6
CONTINUOUS
370
50
 62
4
100
AcDbLine
 10
0.0
 20
1.071851644179874
 30
0.0
 11
1.240655468634837
 21
2.312507112814711
 31
0.0
  0
LINE
  5
3E2
330
1F
100
AcDbEntity
  8
SK1
  6
CONTINUOUS
370
50
 62
4
100
AcDbLine
 10
-2.431223557116124
 20
-0.9881408528133115
 30
0.0
 11
-1.443082704302812
 21
0.0
 31
0.0
  0
LINE
  5
3E3
330
1F
100
AcDbEntity
  8
SK1
  6
CONTINUOUS
370
50
 62
4
100
AcDbLine
 10
0.0
 20
1.443082704302812
 30
0.0
 11
0.9881408528133117
 21
2.431223557116124
 31
0.0
  0
LINE
  5
3E4
330
1F
100
AcDbEntity
  8
SK1
  6
CONTINUOUS
370
50
 62
4
100
AcDbLine
 10
-2.525555179665438
 20
-0.7112414152396886
 30
0.0
 11
-1.81431376442575
 21
0.0
 31
0.0
  0
LINE
  5
3E5
330
1F
100
AcDbEntity
  8
SK1
  6
CONTINUOUS
370
50
 62
4
100
AcDbLine
 10
0.0
 20
1.81431376442575
 30
0.0
 11
0.7112414152396889
 21
2.525555179665439
 31
0.0
  0
LINE
  5
3E6
330
1F
100
AcDbEntity
  8
SK1
  6
CONTINUOUS
370
50
 62
4
100
AcDbLine
 10
-2.59202879428915
 20
-0.4064839697404632
 30
0.0
 11
-2.185544824548687
 21
0.0
 31
0.0
  0
LINE
  5
3E7
330
1F
100
AcDbEntity
  8
SK1
  6
CONTINUOUS
370
50
 62
4
100
AcDbLine
 10
0.0
 20
2.185544824548687
 30
0.0
 11
0.406483969740463
 21
2.59202879428915
 31
0.0
  0
LINE
  5
3E8
330
1F
100
AcDbEntity
  8
SK1
  6
CONTINUOUS
370
50
 62
4
100
AcDbLine
 10
-2.622921296684535
 20
-0.0661454120129097
 30
0.0
 11
-2.556775884671625
 21
0.0
 31
0.0
  0
LINE
  5
3E9
330
1F
100
AcDbEntity
  8
SK1
  6
CONTINUOUS
370
50
 62
4
100
AcDbLine
 10
0.0
 20
2.556775884671625
 30
0.0
 11
0.0661454120129104
 21
2.622921296684535
 31
0.0
  0
LINE
  5
3EA
330
1F
100
AcDbEntity
  8
SK1
  6
CONTINUOUS
370
50
 62
4
100
AcDbLine
 10
-2.454203473563767
 20
-0.9287176037316112
 30
0.0
 11
-0.9287176037316088
 21
-2.454203473563768
 31
0.0
  0
LINE
  5
3EB
330
1F
100
AcDbEntity
  8
SK1
  6
CONTINUOUS
370
50
 62
4
100
AcDbLine
 10
-2.589548954366934
 20
-0.4221410628055069
 30
0.0
 11
-0.4221410628055044
 21
-2.589548954366935
 31
0.0
  0
LINE
  5
3EC
330
1F
100
AcDbEntity
  8
SK1
  6
CONTINUOUS
370
50
 62
4
100
AcDbLine
 10
-2.624498419913778
 20
-0.0159605371357268
 30
0.0
 11
-0.0159605371357233
 21
-2.624498419913778
 31
0.0
  0
LINE
  5
3ED
330
1F
100
AcDbEntity
  8
SK1
  6
CONTINUOUS
370
50
 62
4
100
AcDbLine
 10
-2.269227896926567
 20
0.0
 30
0.0
 11
0.0
 21
-2.269227896926564
 31
0.0
  0
LINE
  5
3EE
330
1F
100
AcDbEntity
  8
SK1
  6
CONTINUOUS
370
50
 62
4
100
AcDbLine
 10
-1.897996836803628
 20
0.0
 30
0.0
 11
0.0
 21
-1.897996836803626
 31
0.0
  0
LINE
  5
3EF
330
1F
100
AcDbEntity
  8
SK1
  6
CONTINUOUS
370
50
 62
4
100
AcDbLine
 10
-1.526765776680691
 20
0.0
 30
0.0
 11
0.0
 21
-1.526765776680689
 31
0.0
  0
LINE
  5
3F0
330
1F
100
AcDbEntity
  8
SK1
  6
CONTINUOUS
370
50
 62
4
100
AcDbLine
 10
-1.155534716557753
 20
0.0
 30
0.0
 11
0.0
 21
-1.155534716557752
 31
0.0
  0
LINE
  5
3F1
330
1F
100
AcDbEntity
  8
SK1
  6
CONTINUOUS
370
50
 62
4
100
AcDbLine
 10
-0.7843036564348154
 20
0.0
 30
0.0
 11
0.0
 21
-0.7843036564348145
 31
0.0
  0
LINE
  5
3F2
330
1F
100
AcDbEntity
  8
SK1
  6
CONTINUOUS
370
50
 62
4
100
AcDbLine
 10
-0.4130725963118773
 20
0.0
 30
0.0
 11
0.0
 21
-0.4130725963118769
 31
0.0
  0
LINE
  5
3F3
330
1F
100
AcDbEntity
  8
SK1
  6
CONTINUOUS
370
50
 62
4
100
AcDbLine
 10
-0.0418415361889393
 20
0.0
 30
0.0
 11
0.0
 21
-0.0418415361889393
 31
0.0
  0
LINE
  5
3F4
330
1F
100
AcDbEntity
  8
SK1
  6
CONTINUOUS
370
50
 62
4
100
AcDbLine
 10
0.0
 20
0.3293895239339975
 30
0.0
 11
0.3293895239339978
 21
0.0
 31
0.0
  0
LINE
  5
3F5
330
1F
100
AcDbEntity
  8
SK1
  6
CONTINUOUS
370
50
 62
4
100
AcDbLine
 10
0.0
 20
0.7006205840569351
 30
0.0
 11
0.7006205840569358
 21
0.0
 31
0.0
  0
LINE
  5
3F6
330
1F
100
AcDbEntity
  8
SK1
  6
CONTINUOUS
370
50
 62
4
100
AcDbLine
 10
0.0
 20
1.071851644179873
 30
0.0
 11
1.071851644179874
 21
0.0
 31
0.0
  0
LINE
  5
3F7
330
1F
100
AcDbEntity
  8
SK1
  6
CONTINUOUS
370
50
 62
4
100
AcDbLine
 10
0.0
 20
1.44308270430281
 30
0.0
 11
1.443082704302812
 21
0.0
 31
0.0
  0
LINE
  5
3F8
330
1F
100
AcDbEntity
  8
SK1
  6
CONTINUOUS
370
50
 62
4
100
AcDbLine
 10
0.0
 20
1.814313764425748
 30
0.0
 11
1.81431376442575
 21
0.0
 31
0.0
  0
LINE
  5
3F9
330
1F
100
AcDbEntity
  8
SK1
  6
CONTINUOUS
370
50
 62
4
100
AcDbLine
 10
0.0
 20
2.185544824548685
 30
0.0
 11
2.185544824548687
 21
0.0
 31
0.0
  0
LINE
  5
3FA
330
1F
100
AcDbEntity
  8
SK1
  6
CONTINUOUS
370
50
 62
4
100
AcDbLine
 10
0.0
 20
2.556775884671622
 30
0.0
 11
2.556775884671625
 21
0.0
 31
0.0
  0
LINE
  5
3FB
330
1F
100
AcDbEntity
  8
SK1
  6
CONTINUOUS
370
50
 62
4
100
AcDbLine
 10
0.3231531925751008
 20
2.604853752219459
 30
0.0
 11
2.604853752219459
 21
0.3231531925751043
 31
0.0
  0
LINE
  5
3FC
330
1F
100
AcDbEntity
  8
SK1
  6
CONTINUOUS
370
50
 62
4
100
AcDbLine
 10
0.79925237182748
 20
2.499985633090018
 30
0.0
 11
2.499985633090018
 21
0.7992523718274818
 31
0.0
  0
LINE
  5
3FD
330
1F
100
AcDbEntity
  8
SK1
  6
CONTINUOUS
370
50
 62
4
100
AcDbLine
 10
1.560157930981756
 20
2.11031113405868
 30
0.0
 11
2.110311134058677
 21
1.560157930981759
 31
0.0
  0
LINE
  5
3FE
330
1F
100
AcDbEntity
  8
2
  6
CONTINUOUS
370
25
 62
7
100
AcDbLine
 10
40.0
 20
-16.0
 30
0.0
 11
53.0
 21
-16.0
 31
0.0
  0
LINE
  5
3FF
330
1F
100
AcDbEntity
  8
2
  6
CONTINUOUS
370
25
 62
7
100
AcDbLine
 10
53.0
 20
16.0
 30
0.0
 11
40.0
 21
16.0
 31
0.0
  0
LINE
  5
400
330
1F
100
AcDbEntity
  8
2
  6
CONTINUOUS
370
25
 62
7
100
AcDbLine
 10
52.0
 20
-16.0
 30
0.0
 11
52.0
 21
16.0
 31
0.0
  0
LINE
  5
401
330
1F
100
AcDbEntity
  8
2
  6
CONTINUOUS
370
25
 62
7
100
AcDbLine
 10
52.0
 20
-16.0
 30
0.0
 11
51.0
 21
-11.0
 31
0.0
  0
LINE
  5
402
330
1F
100
AcDbEntity
  8
2
  6
CONTINUOUS
370
25
 62
7
100
AcDbLine
 10
51.0
 20
-11.0
 30
0.0
 11
53.0
 21
-11.0
 31
0.0
  0
LINE
  5
403
330
1F
100
AcDbEntity
  8
2
  6
CONTINUOUS
370
25
 62
7
100
AcDbLine
 10
53.0
 20
-11.0
 30
0.0
 11
52.0
 21
-16.0
 31
0.0
  0
LINE
  5
404
330
1F
100
AcDbEntity
  8
2
  6
CONTINUOUS
370
25
 62
7
100
AcDbLine
 10
51.94612114139545
 20
-15.73060570697726
 30
0.0
 11
52.08081828790682
 21
-15.59590856046589
 31
0.0
  0
LINE
  5
405
330
1F
100
AcDbEntity
  8
2
  6
CONTINUOUS
370
25
 62
7
100
AcDbLine
 10
51.8754104632768
 20
-15.37705231638399
 30
0.0
 11
52.1868843050848
 21
-15.06557847457599
 31
0.0
  0
LINE
  5
406
330
1F
100
AcDbEntity
  8
2
  6
CONTINUOUS
370
25
 62
7
100
AcDbLine
 10
51.80469978515814
 20
-15.02349892579071
 30
0.0
 11
52.29295032226278
 21
-14.53524838868607
 31
0.0
  0
LINE
  5
407
330
1F
100
AcDbEntity
  8
2
  6
CONTINUOUS
370
25
 62
7
100
AcDbLine
 10
51.73398910703948
 20
-14.66994553519744
 30
0.0
 11
52.39901633944077
 21
-14.00491830279615
 31
0.0
  0
LINE
  5
408
330
1F
100
AcDbEntity
  8
2
  6
CONTINUOUS
370
25
 62
7
100
AcDbLine
 10
51.66327842892084
 20
-14.31639214460416
 30
0.0
 11
52.50508235661875
 21
-13.47458821690625
 31
0.0
  0
LINE
  5
409
330
1F
100
AcDbEntity
  8
2
  6
CONTINUOUS
370
25
 62
7
100
AcDbLine
 10
51.59256775080217
 20
-13.96283875401089
 30
0.0
 11
52.61114837379674
 21
-12.94425813101633
 31
0.0
  0
LINE
  5
40A
330
1F
100
AcDbEntity
  8
2
  6
CONTINUOUS
370
25
 62
7
100
AcDbLine
 10
51.52185707268352
 20
-13.60928536341761
 30
0.0
 11
52.71721439097472
 21
-12.41392804512641
 31
0.0
  0
LINE
  5
40B
330
1F
100
AcDbEntity
  8
2
  6
CONTINUOUS
370
25
 62
7
100
AcDbLine
 10
51.45114639456487
 20
-13.25573197282433
 30
0.0
 11
52.8232804081527
 21
-11.8835979592365
 31
0.0
  0
LINE
  5
40C
330
1F
100
AcDbEntity
  8
2
  6
CONTINUOUS
370
25
 62
7
100
AcDbLine
 10
51.38043571644621
 20
-12.90217858223105
 30
0.0
 11
52.92934642533069
 21
-11.35326787334657
 31
0.0
  0
LINE
  5
40D
330
1F
100
AcDbEntity
  8
2
  6
CONTINUOUS
370
25
 62
7
100
AcDbLine
 10
51.30972503832756
 20
-12.54862519163778
 30
0.0
 11
52.85835022996534
 21
-11.0
 31
0.0
  0
LINE
  5
40E
330
1F
100
AcDbEntity
  8
2
  6
CONTINUOUS
370
25
 62
7
100
AcDbLine
 10
51.2390143602089
 20
-12.19507180104451
 30
0.0
 11
52.4340861612534
 21
-11.0
 31
0.0
  0
LINE
  5
40F
330
1F
100
AcDbEntity
  8
2
  6
CONTINUOUS
370
25
 62
7
100
AcDbLine
 10
51.16830368209025
 20
-11.84151841045122
 30
0.0
 11
52.00982209254147
 21
-11.0
 31
0.0
  0
LINE
  5
410
330
1F
100
AcDbEntity
  8
2
  6
CONTINUOUS
370
25
 62
7
100
AcDbLine
 10
51.09759300397159
 20
-11.48796501985795
 30
0.0
 11
51.58555802382954
 21
-11.0
 31
0.0
  0
LINE
  5
411
330
1F
100
AcDbEntity
  8
2
  6
CONTINUOUS
370
25
 62
7
100
AcDbLine
 10
51.02688232585294
 20
-11.13441162926468
 30
0.0
 11
51.16129395511761
 21
-11.0
 31
0.0
  0
LINE
  5
412
330
1F
100
AcDbEntity
  8
2
  6
CONTINUOUS
370
25
 62
7
100
AcDbLine
 10
51.98438853987154
 20
-15.92194269935767
 30
0.0
 11
52.01040764008565
 21
-15.94796179957178
 31
0.0
  0
LINE
  5
413
330
1F
100
AcDbEntity
  8
2
  6
CONTINUOUS
370
25
 62
7
100
AcDbLine
 10
51.87832252269356
 20
-15.39161261346776
 30
0.0
 11
52.0811183182043
 21
-15.5944084089785
 31
0.0
  0
LINE
  5
414
330
1F
100
AcDbEntity
  8
2
  6
CONTINUOUS
370
25
 62
7
100
AcDbLine
 10
51.77225650551557
 20
-14.86128252757784
 30
0.0
 11
52.15182899632295
 21
-15.24085501838522
 31
0.0
  0
LINE
  5
415
330
1F
100
AcDbEntity
  8
2
  6
CONTINUOUS
370
25
 62
7
100
AcDbLine
 10
51.66619048833758
 20
-14.33095244168792
 30
0.0
 11
52.22253967444161
 21
-14.88730162779195
 31
0.0
  0
LINE
  5
416
330
1F
100
AcDbEntity
  8
2
  6
CONTINUOUS
370
25
 62
7
100
AcDbLine
 10
51.5601244711596
 20
-13.80062235579801
 30
0.0
 11
52.29325035256026
 21
-14.53374823719867
 31
0.0
  0
LINE
  5
417
330
1F
100
AcDbEntity
  8
2
  6
CONTINUOUS
370
25
 62
7
100
AcDbLine
 10
51.45405845398162
 20
-13.2702922699081
 30
0.0
 11
52.36396103067892
 21
-14.1801948466054
 31
0.0
  0
LINE
  5
418
330
1F
100
AcDbEntity
  8
2
  6
CONTINUOUS
370
25
 62
7
100
AcDbLine
 10
51.34799243680364
 20
-12.7399621840182
 30
0.0
 11
52.43467170879757
 21
-13.82664145601213
 31
0.0
  0
LINE
  5
419
330
1F
100
AcDbEntity
  8
2
  6
CONTINUOUS
370
25
 62
7
100
AcDbLine
 10
51.24192641962566
 20
-12.20963209812829
 30
0.0
 11
52.50538238691622
 21
-13.47308806541885
 31
0.0
  0
LINE
  5
41A
330
1F
100
AcDbEntity
  8
2
  6
CONTINUOUS
370
25
 62
7
100
AcDbLine
 10
51.13586040244768
 20
-11.67930201223837
 30
0.0
 11
52.57609306503489
 21
-13.11953467482558
 31
0.0
  0
LINE
  5
41B
330
1F
100
AcDbEntity
  8
2
  6
CONTINUOUS
370
25
 62
7
100
AcDbLine
 10
51.02979438526969
 20
-11.14897192634844
 30
0.0
 11
52.64680374315354
 21
-12.7659812842323
 31
0.0
  0
LINE
  5
41C
330
1F
100
AcDbEntity
  8
2
  6
CONTINUOUS
370
25
 62
7
100
AcDbLine
 10
51.30508652763317
 20
-11.0
 30
0.0
 11
52.7175144212722
 21
-12.41242789363903
 31
0.0
  0
LINE
  5
41D
330
1F
100
AcDbEntity
  8
2
  6
CONTINUOUS
370
25
 62
7
100
AcDbLine
 10
51.72935059634511
 20
-11.0
 30
0.0
 11
52.78822509939085
 21
-12.05887450304574
 31
0.0
  0
LINE
  5
41E
330
1F
100
AcDbEntity
  8
2
  6
CONTINUOUS
370
25
 62
7
100
AcDbLine
 10
52.15361466505703
 20
-11.0
 30
0.0
 11
52.8589357775095
 21
-11.70532111245247
 31
0.0
  0
LINE
  5
41F
330
1F
100
AcDbEntity
  8
2
  6
CONTINUOUS
370
25
 62
7
100
AcDbLine
 10
52.57787873376897
 20
-11.0
 30
0.0
 11
52.92964645562817
 21
-11.3517677218592
 31
0.0
  0
LINE
  5
420
330
1F
100
AcDbEntity
  8
2
  6
CONTINUOUS
370
25
 62
7
100
AcDbLine
 10
52.0
 20
16.0
 30
0.0
 11
53.0
 21
11.0
 31
0.0
  0
LINE
  5
421
330
1F
100
AcDbEntity
  8
2
  6
CONTINUOUS
370
25
 62
7
100
AcDbLine
 10
53.0
 20
11.0
 30
0.0
 11
51.0
 21
11.0
 31
0.0
  0
LINE
  5
422
330
1F
100
AcDbEntity
  8
2
  6
CONTINUOUS
370
25
 62
7
100
AcDbLine
 10
51.0
 20
11.0
 30
0.0
 11
52.0
 21
16.0
 31
0.0
  0
LINE
  5
423
330
1F
100
AcDbEntity
  8
2
  6
CONTINUOUS
370
25
 62
7
100
AcDbLine
 10
52.67815538336004
 20
11.0
 30
0.0
 11
52.94635923056001
 21
11.26820384719997
 31
0.0
  0
LINE
  5
424
330
1F
100
AcDbEntity
  8
2
  6
CONTINUOUS
370
25
 62
7
100
AcDbLine
 10
52.25389131464811
 20
11.0
 30
0.0
 11
52.87564855244135
 21
11.62175723779325
 31
0.0
  0
LINE
  5
425
330
1F
100
AcDbEntity
  8
2
  6
CONTINUOUS
370
25
 62
7
100
AcDbLine
 10
51.82962724593618
 20
11.0
 30
0.0
 11
52.8049378743227
 21
11.97531062838652
 31
0.0
  0
LINE
  5
426
330
1F
100
AcDbEntity
  8
2
  6
CONTINUOUS
370
25
 62
7
100
AcDbLine
 10
51.40536317722425
 20
11.0
 30
0.0
 11
52.73422719620404
 21
12.32886401897979
 31
0.0
  0
LINE
  5
427
330
1F
100
AcDbEntity
  8
2
  6
CONTINUOUS
370
25
 62
7
100
AcDbLine
 10
51.00472522287193
 20
11.02362611435962
 30
0.0
 11
52.66351651808538
 21
12.68241740957307
 31
0.0
  0
LINE
  5
428
330
1F
100
AcDbEntity
  8
2
  6
CONTINUOUS
370
25
 62
7
100
AcDbLine
 10
51.11079124004991
 20
11.55395620024952
 30
0.0
 11
52.59280583996673
 21
13.03597080016635
 31
0.0
  0
LINE
  5
429
330
1F
100
AcDbEntity
  8
2
  6
CONTINUOUS
370
25
 62
7
100
AcDbLine
 10
51.21685725722789
 20
12.08428628613943
 30
0.0
 11
52.52209516184808
 21
13.38952419075962
 31
0.0
  0
LINE
  5
42A
330
1F
100
AcDbEntity
  8
2
  6
CONTINUOUS
370
25
 62
7
100
AcDbLine
 10
51.32292327440587
 20
12.61461637202935
 30
0.0
 11
52.45138448372942
 21
13.7430775813529
 31
0.0
  0
LINE
  5
42B
330
1F
100
AcDbEntity
  8
2
  6
CONTINUOUS
370
25
 62
7
100
AcDbLine
 10
51.42898929158385
 20
13.14494645791927
 30
0.0
 11
52.38067380561076
 21
14.09663097194618
 31
0.0
  0
LINE
  5
42C
330
1F
100
AcDbEntity
  8
2
  6
CONTINUOUS
370
25
 62
7
100
AcDbLine
 10
51.53505530876183
 20
13.67527654380918
 30
0.0
 11
52.3099631274921
 21
14.45018436253945
 31
0.0
  0
LINE
  5
42D
330
1F
100
AcDbEntity
  8
2
  6
CONTINUOUS
370
25
 62
7
100
AcDbLine
 10
51.64112132593982
 20
14.20560662969909
 30
0.0
 11
52.23925244937345
 21
14.80373775313272
 31
0.0
  0
LINE
  5
42E
330
1F
100
AcDbEntity
  8
2
  6
CONTINUOUS
370
25
 62
7
100
AcDbLine
 10
51.7471873431178
 20
14.73593671558901
 30
0.0
 11
52.1685417712548
 21
15.15729114372601
 31
0.0
  0
LINE
  5
42F
330
1F
100
AcDbEntity
  8
2
  6
CONTINUOUS
370
25
 62
7
100
AcDbLine
 10
51.85325336029578
 20
15.26626680147892
 30
0.0
 11
52.09783109313614
 21
15.51084453431928
 31
0.0
  0
LINE
  5
430
330
1F
100
AcDbEntity
  8
2
  6
CONTINUOUS
370
25
 62
7
100
AcDbLine
 10
51.95931937747377
 20
15.79659688736884
 30
0.0
 11
52.02712041501749
 21
15.86439792491256
 31
0.0
  0
LINE
  5
431
330
1F
100
AcDbEntity
  8
2
  6
CONTINUOUS
370
25
 62
7
100
AcDbLine
 10
51.06113635010892
 20
11.30568175054454
 30
0.0
 11
51.36681810065345
 21
11.0
 31
0.0
  0
LINE
  5
432
330
1F
100
AcDbEntity
  8
2
  6
CONTINUOUS
370
25
 62
7
100
AcDbLine
 10
51.13184702822757
 20
11.65923514113782
 30
0.0
 11
51.79108216936539
 21
11.0
 31
0.0
  0
LINE
  5
433
330
1F
100
AcDbEntity
  8
2
  6
CONTINUOUS
370
25
 62
7
100
AcDbLine
 10
51.20255770634622
 20
12.0127885317311
 30
0.0
 11
52.21534623807732
 21
11.0
 31
0.0
  0
LINE
  5
434
330
1F
100
AcDbEntity
  8
2
  6
CONTINUOUS
370
25
 62
7
100
AcDbLine
 10
51.27326838446488
 20
12.36634192232437
 30
0.0
 11
52.63961030678925
 21
11.0
 31
0.0
  0
LINE
  5
435
330
1F
100
AcDbEntity
  8
2
  6
CONTINUOUS
370
25
 62
7
100
AcDbLine
 10
51.34397906258353
 20
12.71989531291765
 30
0.0
 11
52.98403140612471
 21
11.07984296937647
 31
0.0
  0
LINE
  5
436
330
1F
100
AcDbEntity
  8
2
  6
CONTINUOUS
370
25
 62
7
100
AcDbLine
 10
51.41468974070218
 20
13.07344870351093
 30
0.0
 11
52.87796538894673
 21
11.61017305526639
 31
0.0
  0
LINE
  5
437
330
1F
100
AcDbEntity
  8
2
  6
CONTINUOUS
370
25
 62
7
100
AcDbLine
 10
51.48540041882084
 20
13.42700209410421
 30
0.0
 11
52.77189937176874
 21
12.14050314115631
 31
0.0
  0
LINE
  5
438
330
1F
100
AcDbEntity
  8
2
  6
CONTINUOUS
370
25
 62
7
100
AcDbLine
 10
51.5561110969395
 20
13.78055548469747
 30
0.0
 11
52.66583335459076
 21
12.67083322704621
 31
0.0
  0
LINE
  5
439
330
1F
100
AcDbEntity
  8
2
  6
CONTINUOUS
370
25
 62
7
100
AcDbLine
 10
51.62682177505815
 20
14.13410887529075
 30
0.0
 11
52.55976733741277
 21
13.20116331293613
 31
0.0
  0
LINE
  5
43A
330
1F
100
AcDbEntity
  8
2
  6
CONTINUOUS
370
25
 62
7
100
AcDbLine
 10
51.69753245317681
 20
14.48766226588403
 30
0.0
 11
52.45370132023479
 21
13.73149339882605
 31
0.0
  0
LINE
  5
43B
330
1F
100
AcDbEntity
  8
2
  6
CONTINUOUS
370
25
 62
7
100
AcDbLine
 10
51.76824313129546
 20
14.8412156564773
 30
0.0
 11
52.34763530305681
 21
14.26182348471595
 31
0.0
  0
LINE
  5
43C
330
1F
100
AcDbEntity
  8
2
  6
CONTINUOUS
370
25
 62
7
100
AcDbLine
 10
51.83895380941411
 20
15.19476904707058
 30
0.0
 11
52.24156928587883
 21
14.79215357060586
 31
0.0
  0
LINE
  5
43D
330
1F
100
AcDbEntity
  8
2
  6
CONTINUOUS
370
25
 62
7
100
AcDbLine
 10
51.90966448753277
 20
15.54832243766386
 30
0.0
 11
52.13550326870084
 21
15.32248365649578
 31
0.0
  0
LINE
  5
43E
330
1F
100
AcDbEntity
  8
2
  6
CONTINUOUS
370
25
 62
7
100
AcDbLine
 10
51.98037516565143
 20
15.90187582825713
 30
0.0
 11
52.02943725152286
 21
15.85281374238571
 31
0.0
  0
TEXT
  5
43F
330
1F
100
AcDbEntity
  8
2
  6
CONTINUOUS
370
25
 62
7
100
AcDbText
 10
50.5
 20
-0.641666666666667
 30
0.0
 40
3.5
  1
32
 50
90.0
 72
     1
 11
50.5
 21
2.275
 31
0.0
100
AcDbText
  0
CIRCLE
  5
440
330
1F
100
AcDbEntity
  8
2
  6
CONTINUOUS
370
25
 62
7
100
AcDbCircle
 10
48.75
 20
-2.625
 30
0.0
 40
1.4
  0
LINE
  5
441
330
1F
100
AcDbEntity
  8
2
  6
CONTINUOUS
370
25
 62
7
100
AcDbLine
 10
50.15
 20
-4.024999999999999
 30
0.0
 11
47.35
 21
-1.224999999999999
 31
0.0
  0
LINE
  5
442
330
1F
100
AcDbEntity
  8
2
  6
CONTINUOUS
370
25
 62
7
100
AcDbLine
 10
-0.0000000000000001
 20
24.40850345
 30
0.0
 11
0.0000000000000014
 21
49.0
 31
0.0
  0
LINE
  5
443
330
1F
100
AcDbEntity
  8
2
  6
CONTINUOUS
370
25
 62
7
100
AcDbLine
 10
40.0
 20
49.0
 30
0.0
 11
40.0
 21
26.00850345
 31
0.0
  0
LINE
  5
444
330
1F
100
AcDbEntity
  8
2
  6
CONTINUOUS
370
25
 62
7
100
AcDbLine
 10
0.0
 20
48.0
 30
0.0
 11
40.0
 21
48.0
 31
0.0
  0
LINE
  5
445
330
1F
100
AcDbEntity
  8
2
  6
CONTINUOUS
370
25
 62
7
100
AcDbLine
 10
0.0
 20
48.0
 30
0.0
 11
5.0
 21
49.0
 31
0.0
  0
LINE
  5
446
330
1F
100
AcDbEntity
  8
2
  6
CONTINUOUS
370
25
 62
7
100
AcDbLine
 10
5.0
 20
49.0
 30
0.0
 11
5.0
 21
47.0
 31
0.0
  0
LINE
  5
447
330
1F
100
AcDbEntity
  8
2
  6
CONTINUOUS
370
25
 62
7
100
AcDbLine
 10
5.0
 20
47.0
 30
0.0
 11
0.0
 21
48.0
 31
0.0
  0
LINE
  5
448
330
1F
100
AcDbEntity
  8
2
  6
CONTINUOUS
370
25
 62
7
100
AcDbLine
 10
4.998214331265944
 20
47.00035713374681
 30
0.0
 11
5.0
 21
47.00214280248087
 31
0.0
  0
LINE
  5
449
330
1F
100
AcDbEntity
  8
2
  6
CONTINUOUS
370
25
 62
7
100
AcDbLine
 10
4.64466094067267
 20
47.07106781186546
 30
0.0
 11
5.0
 21
47.4264068711928
 31
0.0
  0
LINE
  5
44A
330
1F
100
AcDbEntity
  8
2
  6
CONTINUOUS
370
25
 62
7
100
AcDbLine
 10
4.291107550079393
 20
47.14177848998412
 30
0.0
 11
5.0
 21
47.85067093990473
 31
0.0
  0
LINE
  5
44B
330
1F
100
AcDbEntity
  8
2
  6
CONTINUOUS
370
25
 62
7
100
AcDbLine
 10
3.937554159486119
 20
47.21248916810278
 30
0.0
 11
5.0
 21
48.27493500861666
 31
0.0
  0
LINE
  5
44C
330
1F
100
AcDbEntity
  8
2
  6
CONTINUOUS
370
25
 62
7
100
AcDbLine
 10
3.58400076889284
 20
47.28319984622143
 30
0.0
 11
5.0
 21
48.69919907732859
 31
0.0
  0
LINE
  5
44D
330
1F
100
AcDbEntity
  8
2
  6
CONTINUOUS
370
25
 62
7
100
AcDbLine
 10
3.230447378299567
 20
47.35391052434009
 30
0.0
 11
4.845671067449352
 21
48.96913421348987
 31
0.0
  0
LINE
  5
44E
330
1F
100
AcDbEntity
  8
2
  6
CONTINUOUS
370
25
 62
7
100
AcDbLine
 10
2.876893987706289
 20
47.42462120245875
 30
0.0
 11
4.315340981559435
 21
48.86306819631189
 31
0.0
  0
LINE
  5
44F
330
1F
100
AcDbEntity
  8
2
  6
CONTINUOUS
370
25
 62
7
100
AcDbLine
 10
2.523340597113015
 20
47.4953318805774
 30
0.0
 11
3.785010895669525
 21
48.75700217913391
 31
0.0
  0
LINE
  5
450
330
1F
100
AcDbEntity
  8
2
  6
CONTINUOUS
370
25
 62
7
100
AcDbLine
 10
2.169787206519736
 20
47.56604255869605
 30
0.0
 11
3.254680809779606
 21
48.65093616195592
 31
0.0
  0
LINE
  5
451
330
1F
100
AcDbEntity
  8
2
  6
CONTINUOUS
370
25
 62
7
100
AcDbLine
 10
1.816233815926463
 20
47.63675323681471
 30
0.0
 11
2.724350723889695
 21
48.54487014477794
 31
0.0
  0
LINE
  5
452
330
1F
100
AcDbEntity
  8
2
  6
CONTINUOUS
370
25
 62
7
100
AcDbLine
 10
1.462680425333184
 20
47.70746391493336
 30
0.0
 11
2.194020637999776
 21
48.43880412759996
 31
0.0
  0
LINE
  5
453
330
1F
100
AcDbEntity
  8
2
  6
CONTINUOUS
370
25
 62
7
100
AcDbLine
 10
1.10912703473991
 20
47.77817459305201
 30
0.0
 11
1.663690552109867
 21
48.33273811042197
 31
0.0
  0
LINE
  5
454
330
1F
100
AcDbEntity
  8
2
  6
CONTINUOUS
370
25
 62
7
100
AcDbLine
 10
0.7555736441466312
 20
47.84888527117067
 30
0.0
 11
1.133360466219947
 21
48.22667209324399
 31
0.0
  0
LINE
  5
455
330
1F
100
AcDbEntity
  8
2
  6
CONTINUOUS
370
25
 62
7
100
AcDbLine
 10
0.4020202535533579
 20
47.91959594928933
 30
0.0
 11
0.6030303803300371
 21
48.12060607606601
 31
0.0
  0
LINE
  5
456
330
1F
100
AcDbEntity
  8
2
  6
CONTINUOUS
370
25
 62
7
100
AcDbLine
 10
0.0484668629600786
 20
47.99030662740798
 30
0.0
 11
0.0727002944401179
 21
48.01454005888802
 31
0.0
  0
LINE
  5
457
330
1F
100
AcDbEntity
  8
2
  6
CONTINUOUS
370
25
 62
7
100
AcDbLine
 10
0.305086527633171
 20
48.06101730552663
 30
0.0
 11
0.4576297914497567
 21
47.90847404171005
 31
0.0
  0
LINE
  5
458
330
1F
100
AcDbEntity
  8
2
  6
CONTINUOUS
370
25
 62
7
100
AcDbLine
 10
0.6586399182264501
 20
48.13172798364529
 30
0.0
 11
0.9879598773396755
 21
47.80240802453206
 31
0.0
  0
LINE
  5
459
330
1F
100
AcDbEntity
  8
2
  6
CONTINUOUS
370
25
 62
7
100
AcDbLine
 10
1.012193308819723
 20
48.20243866176394
 30
0.0
 11
1.518289963229585
 21
47.69634200735408
 31
0.0
  0
LINE
  5
45A
330
1F
100
AcDbEntity
  8
2
  6
CONTINUOUS
370
25
 62
7
100
AcDbLine
 10
1.365746699413003
 20
48.2731493398826
 30
0.0
 11
2.048620049119505
 21
47.5902759901761
 31
0.0
  0
LINE
  5
45B
330
1F
100
AcDbEntity
  8
2
  6
CONTINUOUS
370
25
 62
7
100
AcDbLine
 10
1.719300090006275
 20
48.34386001800126
 30
0.0
 11
2.578950135009414
 21
47.48420997299812
 31
0.0
  0
LINE
  5
45C
330
1F
100
AcDbEntity
  8
2
  6
CONTINUOUS
370
25
 62
7
100
AcDbLine
 10
2.072853480599554
 20
48.41457069611991
 30
0.0
 11
3.109280220899332
 21
47.37814395582014
 31
0.0
  0
LINE
  5
45D
330
1F
100
AcDbEntity
  8
2
  6
CONTINUOUS
370
25
 62
7
100
AcDbLine
 10
2.426406871192828
 20
48.48528137423857
 30
0.0
 11
3.639610306789242
 21
47.27207793864215
 31
0.0
  0
LINE
  5
45E
330
1F
100
AcDbEntity
  8
2
  6
CONTINUOUS
370
25
 62
7
100
AcDbLine
 10
2.779960261786107
 20
48.55599205235722
 30
0.0
 11
4.169940392679161
 21
47.16601192146417
 31
0.0
  0
LINE
  5
45F
330
1F
100
AcDbEntity
  8
2
  6
CONTINUOUS
370
25
 62
7
100
AcDbLine
 10
3.13351365237938
 20
48.62670273047588
 30
0.0
 11
4.700270478569071
 21
47.05994590428619
 31
0.0
  0
LINE
  5
460
330
1F
100
AcDbEntity
  8
2
  6
CONTINUOUS
370
25
 62
7
100
AcDbLine
 10
3.487067042972659
 20
48.69741340859454
 30
0.0
 11
5.0
 21
47.18448045156719
 31
0.0
  0
LINE
  5
461
330
1F
100
AcDbEntity
  8
2
  6
CONTINUOUS
370
25
 62
7
100
AcDbLine
 10
3.840620433565932
 20
48.76812408671319
 30
0.0
 11
5.0
 21
47.60874452027912
 31
0.0
  0
LINE
  5
462
330
1F
100
AcDbEntity
  8
2
  6
CONTINUOUS
370
25
 62
7
100
AcDbLine
 10
4.194173824159211
 20
48.83883476483184
 30
0.0
 11
5.0
 21
48.03300858899105
 31
0.0
  0
LINE
  5
463
330
1F
100
AcDbEntity
  8
2
  6
CONTINUOUS
370
25
 62
7
100
AcDbLine
 10
4.547727214752484
 20
48.9095454429505
 30
0.0
 11
5.0
 21
48.45727265770298
 31
0.0
  0
LINE
  5
464
330
1F
100
AcDbEntity
  8
2
  6
CONTINUOUS
370
25
 62
7
100
AcDbLine
 10
4.901280605345764
 20
48.98025612106915
 30
0.0
 11
5.0
 21
48.88153672641491
 31
0.0
  0
LINE
  5
465
330
1F
100
AcDbEntity
  8
2
  6
CONTINUOUS
370
25
 62
7
100
AcDbLine
 10
40.0
 20
48.0
 30
0.0
 11
35.0
 21
47.0
 31
0.0
  0
LINE
  5
466
330
1F
100
AcDbEntity
  8
2
  6
CONTINUOUS
370
25
 62
7
100
AcDbLine
 10
35.0
 20
47.0
 30
0.0
 11
35.0
 21
49.0
 31
0.0
  0
LINE
  5
467
330
1F
100
AcDbEntity
  8
2
  6
CONTINUOUS
370
25
 62
7
100
AcDbLine
 10
35.0
 20
49.0
 30
0.0
 11
40.0
 21
48.0
 31
0.0
  0
LINE
  5
468
330
1F
100
AcDbEntity
  8
2
  6
CONTINUOUS
370
25
 62
7
100
AcDbLine
 10
39.92372836809165
 20
47.98474567361833
 30
0.0
 11
39.94915224539443
 21
48.01016955092111
 31
0.0
  0
LINE
  5
469
330
1F
100
AcDbEntity
  8
2
  6
CONTINUOUS
370
25
 62
7
100
AcDbLine
 10
39.39339828220174
 20
47.87867965644035
 30
0.0
 11
39.59559885480115
 21
48.08088022903977
 31
0.0
  0
LINE
  5
46A
330
1F
100
AcDbEntity
  8
2
  6
CONTINUOUS
370
25
 62
7
100
AcDbLine
 10
38.86306819631181
 20
47.77261363926237
 30
0.0
 11
39.24204546420787
 21
48.15159090715842
 31
0.0
  0
LINE
  5
46B
330
1F
100
AcDbEntity
  8
2
  6
CONTINUOUS
370
25
 62
7
100
AcDbLine
 10
38.33273811042189
 20
47.66654762208438
 30
0.0
 11
38.88849207361459
 21
48.22230158527708
 31
0.0
  0
LINE
  5
46C
330
1F
100
AcDbEntity
  8
2
  6
CONTINUOUS
370
25
 62
7
100
AcDbLine
 10
37.80240802453198
 20
47.5604816049064
 30
0.0
 11
38.53493868302132
 21
48.29301226339574
 31
0.0
  0
LINE
  5
46D
330
1F
100
AcDbEntity
  8
2
  6
CONTINUOUS
370
25
 62
7
100
AcDbLine
 10
37.27207793864206
 20
47.45441558772841
 30
0.0
 11
38.18138529242803
 21
48.36372294151439
 31
0.0
  0
LINE
  5
46E
330
1F
100
AcDbEntity
  8
2
  6
CONTINUOUS
370
25
 62
7
100
AcDbLine
 10
36.74174785275214
 20
47.34834957055043
 30
0.0
 11
37.82783190183476
 21
48.43443361963305
 31
0.0
  0
LINE
  5
46F
330
1F
100
AcDbEntity
  8
2
  6
CONTINUOUS
370
25
 62
7
100
AcDbLine
 10
36.21141776686222
 20
47.24228355337245
 30
0.0
 11
37.47427851124148
 21
48.50514429775171
 31
0.0
  0
LINE
  5
470
330
1F
100
AcDbEntity
  8
2
  6
CONTINUOUS
370
25
 62
7
100
AcDbLine
 10
35.6810876809723
 20
47.13621753619447
 30
0.0
 11
37.1207251206482
 21
48.57585497587036
 31
0.0
  0
LINE
  5
471
330
1F
100
AcDbEntity
  8
2
  6
CONTINUOUS
370
25
 62
7
100
AcDbLine
 10
35.15075759508238
 20
47.03015151901648
 30
0.0
 11
36.76717173005492
 21
48.64656565398901
 31
0.0
  0
LINE
  5
472
330
1F
100
AcDbEntity
  8
2
  6
CONTINUOUS
370
25
 62
7
100
AcDbLine
 10
35.0
 20
47.30365799264602
 30
0.0
 11
36.41361833946164
 21
48.71727633210767
 31
0.0
  0
LINE
  5
473
330
1F
100
AcDbEntity
  8
2
  6
CONTINUOUS
370
25
 62
7
100
AcDbLine
 10
35.0
 20
47.72792206135796
 30
0.0
 11
36.06006494886837
 21
48.78798701022633
 31
0.0
  0
LINE
  5
474
330
1F
100
AcDbEntity
  8
2
  6
CONTINUOUS
370
25
 62
7
100
AcDbLine
 10
35.0
 20
48.15218613006989
 30
0.0
 11
35.70651155827509
 21
48.85869768834498
 31
0.0
  0
LINE
  5
475
330
1F
100
AcDbEntity
  8
2
  6
CONTINUOUS
370
25
 62
7
100
AcDbLine
 10
35.0
 20
48.57645019878182
 30
0.0
 11
35.35295816768181
 21
48.92940836646363
 31
0.0
  0
LINE
  5
476
330
1F
100
AcDbEntity
  8
2
  6
CONTINUOUS
370
25
 62
7
100
AcDbLine
 10
35.0
 20
47.30722933011415
 30
0.0
 11
35.2560244417618
 21
47.05120488835235
 31
0.0
  0
LINE
  5
477
330
1F
100
AcDbEntity
  8
2
  6
CONTINUOUS
370
25
 62
7
100
AcDbLine
 10
35.0
 20
47.73149339882608
 30
0.0
 11
35.60957783235506
 21
47.12191556647102
 31
0.0
  0
LINE
  5
478
330
1F
100
AcDbEntity
  8
2
  6
CONTINUOUS
370
25
 62
7
100
AcDbLine
 10
35.0
 20
48.155757467538
 30
0.0
 11
35.96313122294833
 21
47.19262624458968
 31
0.0
  0
LINE
  5
479
330
1F
100
AcDbEntity
  8
2
  6
CONTINUOUS
370
25
 62
7
100
AcDbLine
 10
35.0
 20
48.58002153624994
 30
0.0
 11
36.31668461354162
 21
47.26333692270833
 31
0.0
  0
LINE
  5
47A
330
1F
100
AcDbEntity
  8
2
  6
CONTINUOUS
370
25
 62
7
100
AcDbLine
 10
35.00535700620234
 20
48.99892859875953
 30
0.0
 11
36.6702380041349
 21
47.33404760082698
 31
0.0
  0
LINE
  5
47B
330
1F
100
AcDbEntity
  8
2
  6
CONTINUOUS
370
25
 62
7
100
AcDbLine
 10
35.53568709209226
 20
48.89286258158155
 30
0.0
 11
37.02379139472818
 21
47.40475827894564
 31
0.0
  0
LINE
  5
47C
330
1F
100
AcDbEntity
  8
2
  6
CONTINUOUS
370
25
 62
7
100
AcDbLine
 10
36.06601717798218
 20
48.78679656440357
 30
0.0
 11
37.37734478532146
 21
47.47546895706429
 31
0.0
  0
LINE
  5
47D
330
1F
100
AcDbEntity
  8
2
  6
CONTINUOUS
370
25
 62
7
100
AcDbLine
 10
36.5963472638721
 20
48.68073054722558
 30
0.0
 11
37.73089817591474
 21
47.54617963518295
 31
0.0
  0
LINE
  5
47E
330
1F
100
AcDbEntity
  8
2
  6
CONTINUOUS
370
25
 62
7
100
AcDbLine
 10
37.12667734976201
 20
48.5746645300476
 30
0.0
 11
38.08445156650801
 21
47.6168903133016
 31
0.0
  0
LINE
  5
47F
330
1F
100
AcDbEntity
  8
2
  6
CONTINUOUS
370
25
 62
7
100
AcDbLine
 10
37.65700743565195
 20
48.46859851286961
 30
0.0
 11
38.43800495710131
 21
47.68760099142025
 31
0.0
  0
LINE
  5
480
330
1F
100
AcDbEntity
  8
2
  6
CONTINUOUS
370
25
 62
7
100
AcDbLine
 10
38.18733752154185
 20
48.36253249569163
 30
0.0
 11
38.79155834769457
 21
47.75831166953891
 31
0.0
  0
LINE
  5
481
330
1F
100
AcDbEntity
  8
2
  6
CONTINUOUS
370
25
 62
7
100
AcDbLine
 10
38.71766760743179
 20
48.25646647851364
 30
0.0
 11
39.14511173828787
 21
47.82902234765757
 31
0.0
  0
LINE
  5
482
330
1F
100
AcDbEntity
  8
2
  6
CONTINUOUS
370
25
 62
7
100
AcDbLine
 10
39.24799769332169
 20
48.15040046133566
 30
0.0
 11
39.49866512888113
 21
47.89973302577623
 31
0.0
  0
LINE
  5
483
330
1F
100
AcDbEntity
  8
2
  6
CONTINUOUS
370
25
 62
7
100
AcDbLine
 10
39.77832777921163
 20
48.04433444415768
 30
0.0
 11
39.85221851947443
 21
47.97044370389488
 31
0.0
  0
TEXT
  5
484
330
1F
100
AcDbEntity
  8
2
  6
CONTINUOUS
370
25
 62
7
100
AcDbText
 10
17.375
 20
49.5
 30
0.0
 40
3.5
  1
40
 72
     1
 11
20.0
 21
49.5
 31
0.0
100
AcDbText
  0
LINE
  5
485
330
1F
100
AcDbEntity
  8
SK2
  6
CONTINUOUS
370
25
 62
7
100
AcDbLine
 10
-23.0
 20
34.40850345
 30
0.0
 11
-23.0
 21
59.0
 31
0.0
  0
LINE
  5
486
330
1F
100
AcDbEntity
  8
SK2
  6
CONTINUOUS
370
25
 62
7
100
AcDbLine
 10
40.0
 20
59.0
 30
0.0
 11
40.0
 21
36.00850345
 31
0.0
  0
LINE
  5
487
330
1F
100
AcDbEntity
  8
SK2
  6
CONTINUOUS
370
25
 62
7
100
AcDbLine
 10
-23.0
 20
58.0
 30
0.0
 11
40.0
 21
58.0
 31
0.0
  0
LINE
  5
488
330
1F
100
AcDbEntity
  8
SK2
  6
CONTINUOUS
370
25
 62
7
100
AcDbLine
 10
-23.0
 20
58.0
 30
0.0
 11
-18.0
 21
59.0
 31
0.0
  0
LINE
  5
489
330
1F
100
AcDbEntity
  8
SK2
  6
CONTINUOUS
370
25
 62
7
100
AcDbLine
 10
-18.0
 20
59.0
 30
0.0
 11
-18.0
 21
57.0
 31
0.0
  0
LINE
  5
48A
330
1F
100
AcDbEntity
  8
SK2
  6
CONTINUOUS
370
25
 62
7
100
AcDbLine
 10
-18.0
 20
57.0
 30
0.0
 11
-23.0
 21
58.0
 31
0.0
  0
LINE
  5
48B
330
1F
100
AcDbEntity
  8
SK2
  6
CONTINUOUS
370
25
 62
7
100
AcDbLine
 10
-18.07895013500946
 20
57.01579002700189
 30
0.0
 11
-18.0
 21
57.09474016201135
 31
0.0
  0
LINE
  5
48C
330
1F
100
AcDbEntity
  8
SK2
  6
CONTINUOUS
370
25
 62
7
100
AcDbLine
 10
-18.43250352560274
 20
57.08650070512054
 30
0.0
 11
-18.0
 21
57.51900423072328
 31
0.0
  0
LINE
  5
48D
330
1F
100
AcDbEntity
  8
SK2
  6
CONTINUOUS
370
25
 62
7
100
AcDbLine
 10
-18.78605691619601
 20
57.1572113832392
 30
0.0
 11
-18.0
 21
57.94326829943522
 31
0.0
  0
LINE
  5
48E
330
1F
100
AcDbEntity
  8
SK2
  6
CONTINUOUS
370
25
 62
7
100
AcDbLine
 10
-19.13961030678928
 20
57.22792206135786
 30
0.0
 11
-18.0
 21
58.36753236814714
 31
0.0
  0
LINE
  5
48F
330
1F
100
AcDbEntity
  8
SK2
  6
CONTINUOUS
370
25
 62
7
100
AcDbLine
 10
-19.49316369738256
 20
57.29863273947651
 30
0.0
 11
-18.0
 21
58.79179643685907
 31
0.0
  0
LINE
  5
490
330
1F
100
AcDbEntity
  8
SK2
  6
CONTINUOUS
370
25
 62
7
100
AcDbLine
 10
-19.84671708797584
 20
57.36934341759517
 30
0.0
 11
-18.27007563196376
 21
58.94598487360724
 31
0.0
  0
LINE
  5
491
330
1F
100
AcDbEntity
  8
SK2
  6
CONTINUOUS
370
25
 62
7
100
AcDbLine
 10
-20.20027047856912
 20
57.44005409571382
 30
0.0
 11
-18.80040571785368
 21
58.83991885642926
 31
0.0
  0
LINE
  5
492
330
1F
100
AcDbEntity
  8
SK2
  6
CONTINUOUS
370
25
 62
7
100
AcDbLine
 10
-20.5538238691624
 20
57.51076477383248
 30
0.0
 11
-19.3307358037436
 21
58.73385283925128
 31
0.0
  0
LINE
  5
493
330
1F
100
AcDbEntity
  8
SK2
  6
CONTINUOUS
370
25
 62
7
100
AcDbLine
 10
-20.90737725975567
 20
57.58147545195114
 30
0.0
 11
-19.8610658896335
 21
58.6277868220733
 31
0.0
  0
LINE
  5
494
330
1F
100
AcDbEntity
  8
SK2
  6
CONTINUOUS
370
25
 62
7
100
AcDbLine
 10
-21.26093065034895
 20
57.65218613006979
 30
0.0
 11
-20.39139597552342
 21
58.52172080489531
 31
0.0
  0
LINE
  5
495
330
1F
100
AcDbEntity
  8
SK2
  6
CONTINUOUS
370
25
 62
7
100
AcDbLine
 10
-21.61448404094223
 20
57.72289680818844
 30
0.0
 11
-20.92172606141334
 21
58.41565478771733
 31
0.0
  0
LINE
  5
496
330
1F
100
AcDbEntity
  8
SK2
  6
CONTINUOUS
370
25
 62
7
100
AcDbLine
 10
-21.96803743153549
 20
57.7936074863071
 30
0.0
 11
-21.45205614730324
 21
58.30958877053935
 31
0.0
  0
LINE
  5
497
330
1F
100
AcDbEntity
  8
SK2
  6
CONTINUOUS
370
25
 62
7
100
AcDbLine
 10
-22.32159082212877
 20
57.86431816442575
 30
0.0
 11
-21.98238623319316
 21
58.20352275336137
 31
0.0
  0
LINE
  5
498
330
1F
100
AcDbEntity
  8
SK2
  6
CONTINUOUS
370
25
 62
7
100
AcDbLine
 10
-22.67514421272205
 20
57.93502884254441
 30
0.0
 11
-22.51271631908308
 21
58.09745673618339
 31
0.0
  0
LINE
  5
499
330
1F
100
AcDbEntity
  8
SK2
  6
CONTINUOUS
370
25
 62
7
100
AcDbLine
 10
-22.8217352474251
 20
58.03565295051499
 30
0.0
 11
-22.73260287113764
 21
57.94652057422753
 31
0.0
  0
LINE
  5
49A
330
1F
100
AcDbEntity
  8
SK2
  6
CONTINUOUS
370
25
 62
7
100
AcDbLine
 10
-22.46818185683183
 20
58.10636362863364
 30
0.0
 11
-22.20227278524773
 21
57.84045455704954
 31
0.0
  0
LINE
  5
49B
330
1F
100
AcDbEntity
  8
SK2
  6
CONTINUOUS
370
25
 62
7
100
AcDbLine
 10
-22.11462846623855
 20
58.17707430675229
 30
0.0
 11
-21.67194269935782
 21
57.73438853987156
 31
0.0
  0
LINE
  5
49C
330
1F
100
AcDbEntity
  8
SK2
  6
CONTINUOUS
370
25
 62
7
100
AcDbLine
 10
-21.76107507564527
 20
58.24778498487095
 30
0.0
 11
-21.1416126134679
 21
57.62832252269358
 31
0.0
  0
LINE
  5
49D
330
1F
100
AcDbEntity
  8
SK2
  6
CONTINUOUS
370
25
 62
7
100
AcDbLine
 10
-21.40752168505199
 20
58.3184956629896
 30
0.0
 11
-20.61128252757798
 21
57.52225650551559
 31
0.0
  0
LINE
  5
49E
330
1F
100
AcDbEntity
  8
SK2
  6
CONTINUOUS
370
25
 62
7
100
AcDbLine
 10
-21.05396829445872
 20
58.38920634110826
 30
0.0
 11
-20.08095244168807
 21
57.41619048833761
 31
0.0
  0
LINE
  5
49F
330
1F
100
AcDbEntity
  8
SK2
  6
CONTINUOUS
370
25
 62
7
100
AcDbLine
 10
-20.70041490386545
 20
58.45991701922691
 30
0.0
 11
-19.55062235579816
 21
57.31012447115963
 31
0.0
  0
LINE
  5
4A0
330
1F
100
AcDbEntity
  8
SK2
  6
CONTINUOUS
370
25
 62
7
100
AcDbLine
 10
-20.34686151327217
 20
58.53062769734557
 30
0.0
 11
-19.02029226990824
 21
57.20405845398165
 31
0.0
  0
LINE
  5
4A1
330
1F
100
AcDbEntity
  8
SK2
  6
CONTINUOUS
370
25
 62
7
100
AcDbLine
 10
-19.99330812267889
 20
58.60133837546422
 30
0.0
 11
-18.48996218401832
 21
57.09799243680366
 31
0.0
  0
LINE
  5
4A2
330
1F
100
AcDbEntity
  8
SK2
  6
CONTINUOUS
370
25
 62
7
100
AcDbLine
 10
-19.63975473208561
 20
58.67204905358288
 30
0.0
 11
-18.0
 21
57.03229432149727
 31
0.0
  0
LINE
  5
4A3
330
1F
100
AcDbEntity
  8
SK2
  6
CONTINUOUS
370
25
 62
7
100
AcDbLine
 10
-19.28620134149234
 20
58.74275973170154
 30
0.0
 11
-18.0
 21
57.4565583902092
 31
0.0
  0
LINE
  5
4A4
330
1F
100
AcDbEntity
  8
SK2
  6
CONTINUOUS
370
25
 62
7
100
AcDbLine
 10
-18.93264795089906
 20
58.81347040982019
 30
0.0
 11
-18.0
 21
57.88082245892113
 31
0.0
  0
LINE
  5
4A5
330
1F
100
AcDbEntity
  8
SK2
  6
CONTINUOUS
370
25
 62
7
100
AcDbLine
 10
-18.57909456030579
 20
58.88418108793884
 30
0.0
 11
-18.0
 21
58.30508652763306
 31
0.0
  0
LINE
  5
4A6
330
1F
100
AcDbEntity
  8
SK2
  6
CONTINUOUS
370
25
 62
7
100
AcDbLine
 10
-18.22554116971251
 20
58.9548917660575
 30
0.0
 11
-18.0
 21
58.72935059634499
 31
0.0
  0
LINE
  5
4A7
330
1F
100
AcDbEntity
  8
SK2
  6
CONTINUOUS
370
25
 62
7
100
AcDbLine
 10
40.0
 20
58.0
 30
0.0
 11
35.0
 21
57.0
 31
0.0
  0
LINE
  5
4A8
330
1F
100
AcDbEntity
  8
SK2
  6
CONTINUOUS
370
25
 62
7
100
AcDbLine
 10
35.0
 20
57.0
 30
0.0
 11
35.0
 21
59.0
 31
0.0
  0
LINE
  5
4A9
330
1F
100
AcDbEntity
  8
SK2
  6
CONTINUOUS
370
25
 62
7
100
AcDbLine
 10
35.0
 20
59.0
 30
0.0
 11
40.0
 21
58.0
 31
0.0
  0
LINE
  5
4AA
330
1F
100
AcDbEntity
  8
SK2
  6
CONTINUOUS
370
25
 62
7
100
AcDbLine
 10
39.69580630673379
 20
57.93916126134676
 30
0.0
 11
39.79720420448918
 21
58.04055915910216
 31
0.0
  0
LINE
  5
4AB
330
1F
100
AcDbEntity
  8
SK2
  6
CONTINUOUS
370
25
 62
7
100
AcDbLine
 10
39.16547622084387
 20
57.83309524416878
 30
0.0
 11
39.44365081389591
 21
58.11126983722082
 31
0.0
  0
LINE
  5
4AC
330
1F
100
AcDbEntity
  8
SK2
  6
CONTINUOUS
370
25
 62
7
100
AcDbLine
 10
38.63514613495395
 20
57.72702922699079
 30
0.0
 11
39.09009742330263
 21
58.18198051533948
 31
0.0
  0
LINE
  5
4AD
330
1F
100
AcDbEntity
  8
SK2
  6
CONTINUOUS
370
25
 62
7
100
AcDbLine
 10
38.10481604906403
 20
57.62096320981281
 30
0.0
 11
38.73654403270935
 21
58.25269119345813
 31
0.0
  0
LINE
  5
4AE
330
1F
100
AcDbEntity
  8
SK2
  6
CONTINUOUS
370
25
 62
7
100
AcDbLine
 10
37.57448596317411
 20
57.51489719263483
 30
0.0
 11
38.38299064211607
 21
58.32340187157678
 31
0.0
  0
LINE
  5
4AF
330
1F
100
AcDbEntity
  8
SK2
  6
CONTINUOUS
370
25
 62
7
100
AcDbLine
 10
37.04415587728419
 20
57.40883117545684
 30
0.0
 11
38.02943725152279
 21
58.39411254969544
 31
0.0
  0
LINE
  5
4B0
330
1F
100
AcDbEntity
  8
SK2
  6
CONTINUOUS
370
25
 62
7
100
AcDbLine
 10
36.51382579139428
 20
57.30276515827886
 30
0.0
 11
37.67588386092951
 21
58.46482322781409
 31
0.0
  0
LINE
  5
4B1
330
1F
100
AcDbEntity
  8
SK2
  6
CONTINUOUS
370
25
 62
7
100
AcDbLine
 10
35.98349570550435
 20
57.19669914110087
 30
0.0
 11
37.32233047033623
 21
58.53553390593275
 31
0.0
  0
LINE
  5
4B2
330
1F
100
AcDbEntity
  8
SK2
  6
CONTINUOUS
370
25
 62
7
100
AcDbLine
 10
35.45316561961444
 20
57.09063312392289
 30
0.0
 11
36.96877707974296
 21
58.60624458405141
 31
0.0
  0
LINE
  5
4B3
330
1F
100
AcDbEntity
  8
SK2
  6
CONTINUOUS
370
25
 62
7
100
AcDbLine
 10
35.0
 20
57.06173157302039
 30
0.0
 11
36.61522368914967
 21
58.67695526217006
 31
0.0
  0
LINE
  5
4B4
330
1F
100
AcDbEntity
  8
SK2
  6
CONTINUOUS
370
25
 62
7
100
AcDbLine
 10
35.0
 20
57.48599564173232
 30
0.0
 11
36.2616702985564
 21
58.74766594028871
 31
0.0
  0
LINE
  5
4B5
330
1F
100
AcDbEntity
  8
SK2
  6
CONTINUOUS
370
25
 62
7
100
AcDbLine
 10
35.0
 20
57.91025971044425
 30
0.0
 11
35.90811690796313
 21
58.81837661840738
 31
0.0
  0
LINE
  5
4B6
330
1F
100
AcDbEntity
  8
SK2
  6
CONTINUOUS
370
25
 62
7
100
AcDbLine
 10
35.0
 20
58.33452377915618
 30
0.0
 11
35.55456351736985
 21
58.88908729652603
 31
0.0
  0
LINE
  5
4B7
330
1F
100
AcDbEntity
  8
SK2
  6
CONTINUOUS
370
25
 62
7
100
AcDbLine
 10
35.0
 20
58.75878784786811
 30
0.0
 11
35.20101012677657
 21
58.95979797464469
 31
0.0
  0
LINE
  5
4B8
330
1F
100
AcDbEntity
  8
SK2
  6
CONTINUOUS
370
25
 62
7
100
AcDbLine
 10
35.0
 20
57.06530291048849
 30
0.0
 11
35.05441909207374
 21
57.01088381841475
 31
0.0
  0
LINE
  5
4B9
330
1F
100
AcDbEntity
  8
SK2
  6
CONTINUOUS
370
25
 62
7
100
AcDbLine
 10
35.0
 20
57.48956697920043
 30
0.0
 11
35.40797248266703
 21
57.0815944965334
 31
0.0
  0
LINE
  5
4BA
330
1F
100
AcDbEntity
  8
SK2
  6
CONTINUOUS
370
25
 62
7
100
AcDbLine
 10
35.0
 20
57.91383104791235
 30
0.0
 11
35.76152587326029
 21
57.15230517465206
 31
0.0
  0
LINE
  5
4BB
330
1F
100
AcDbEntity
  8
SK2
  6
CONTINUOUS
370
25
 62
7
100
AcDbLine
 10
35.0
 20
58.33809511662428
 30
0.0
 11
36.11507926385357
 21
57.22301585277071
 31
0.0
  0
LINE
  5
4BC
330
1F
100
AcDbEntity
  8
SK2
  6
CONTINUOUS
370
25
 62
7
100
AcDbLine
 10
35.0
 20
58.76235918533622
 30
0.0
 11
36.46863265444685
 21
57.29372653088937
 31
0.0
  0
LINE
  5
4BD
330
1F
100
AcDbEntity
  8
SK2
  6
CONTINUOUS
370
25
 62
7
100
AcDbLine
 10
35.23327906756019
 20
58.95334418648796
 30
0.0
 11
36.82218604504013
 21
57.36443720900803
 31
0.0
  0
LINE
  5
4BE
330
1F
100
AcDbEntity
  8
SK2
  6
CONTINUOUS
370
25
 62
7
100
AcDbLine
 10
35.76360915345011
 20
58.84727816930998
 30
0.0
 11
37.17573943563341
 21
57.43514788712668
 31
0.0
  0
LINE
  5
4BF
330
1F
100
AcDbEntity
  8
SK2
  6
CONTINUOUS
370
25
 62
7
100
AcDbLine
 10
36.29393923934003
 20
58.74121215213199
 30
0.0
 11
37.52929282622669
 21
57.50585856524535
 31
0.0
  0
LINE
  5
4C0
330
1F
100
AcDbEntity
  8
SK2
  6
CONTINUOUS
370
25
 62
7
100
AcDbLine
 10
36.82426932522996
 20
58.63514613495401
 30
0.0
 11
37.88284621681997
 21
57.576569243364
 31
0.0
  0
LINE
  5
4C1
330
1F
100
AcDbEntity
  8
SK2
  6
CONTINUOUS
370
25
 62
7
100
AcDbLine
 10
37.35459941111988
 20
58.52908011777602
 30
0.0
 11
38.23639960741325
 21
57.64727992148266
 31
0.0
  0
LINE
  5
4C2
330
1F
100
AcDbEntity
  8
SK2
  6
CONTINUOUS
370
25
 62
7
100
AcDbLine
 10
37.8849294970098
 20
58.42301410059804
 30
0.0
 11
38.58995299800653
 21
57.71799059960131
 31
0.0
  0
LINE
  5
4C3
330
1F
100
AcDbEntity
  8
SK2
  6
CONTINUOUS
370
25
 62
7
100
AcDbLine
 10
38.41525958289972
 20
58.31694808342005
 30
0.0
 11
38.94350638859981
 21
57.78870127771997
 31
0.0
  0
LINE
  5
4C4
330
1F
100
AcDbEntity
  8
SK2
  6
CONTINUOUS
370
25
 62
7
100
AcDbLine
 10
38.94558966878964
 20
58.21088206624206
 30
0.0
 11
39.29705977919309
 21
57.85941195583862
 31
0.0
  0
LINE
  5
4C5
330
1F
100
AcDbEntity
  8
SK2
  6
CONTINUOUS
370
25
 62
7
100
AcDbLine
 10
39.47591975467956
 20
58.10481604906409
 30
0.0
 11
39.65061316978637
 21
57.93012263395728
 31
0.0
  0
TEXT
  5
4C6
330
1F
100
AcDbEntity
  8
SK2
  6
CONTINUOUS
370
25
 62
7
100
AcDbText
 10
5.583333333333333
 20
59.5
 30
0.0
 40
3.5
  1
63
 72
     1
 11
8.5
 21
59.5
 31
0.0
100
AcDbText
  0
LINE
  5
4C7
330
1F
100
AcDbEntity
  8
2
  6
CONTINUOUS
370
25
 62
7
100
AcDbLine
 10
40.0
 20
16.0
 30
0.0
 11
17.0
 21
16.0
 31
0.0
  0
LINE
  5
4C8
330
1F
100
AcDbEntity
  8
2
  6
CONTINUOUS
370
25
 62
7
100
AcDbLine
 10
40.0
 20
16.0
 30
0.0
 11
40.0
 21
39.0
 31
0.0
  0
ARC
  5
4C9
330
1F
100
AcDbEntity
  8
2
  6
CONTINUOUS
370
25
 62
7
100
AcDbCircle
 10
40.0
 20
16.0
 30
0.0
 40
22.0
100
AcDbArc
 50
90.0
 51
180.0
  0
LINE
  5
4CA
330
1F
100
AcDbEntity
  8
2
  6
CONTINUOUS
370
25
 62
7
100
AcDbLine
 10
18.0
 20
16.0
 30
0.0
 11
17.57465940934571
 21
21.08124840781691
 31
0.0
  0
LINE
  5
4CB
330
1F
100
AcDbEntity
  8
2
  6
CONTINUOUS
370
25
 62
7
100
AcDbLine
 10
17.57465940934571
 20
21.08124840781691
 30
0.0
 11
19.56170422701793
 21
20.85397568054418
 31
0.0
  0
LINE
  5
4CC
330
1F
100
AcDbEntity
  8
2
  6
CONTINUOUS
370
25
 62
7
100
AcDbLine
 10
19.56170422701793
 20
20.85397568054418
 30
0.0
 11
18.0
 21
16.0
 31
0.0
  0
LINE
  5
4CD
330
1F
100
AcDbEntity
  8
2
  6
CONTINUOUS
370
25
 62
7
100
AcDbLine
 10
17.98102674804399
 20
16.22666025394917
 30
0.0
 11
18.11651739228808
 21
16.36215089819326
 31
0.0
  0
LINE
  5
4CE
330
1F
100
AcDbEntity
  8
2
  6
CONTINUOUS
370
25
 62
7
100
AcDbLine
 10
17.94825569328951
 20
16.61815326790661
 30
0.0
 11
18.31776902017847
 21
16.98766659479558
 31
0.0
  0
LINE
  5
4CF
330
1F
100
AcDbEntity
  8
2
  6
CONTINUOUS
370
25
 62
7
100
AcDbLine
 10
17.91548463853503
 20
17.00964628186406
 30
0.0
 11
18.51902064806887
 21
17.61318229139791
 31
0.0
  0
LINE
  5
4D0
330
1F
100
AcDbEntity
  8
2
  6
CONTINUOUS
370
25
 62
7
100
AcDbLine
 10
17.88271358378054
 20
17.4011392958215
 30
0.0
 11
18.72027227595927
 21
18.23869798800023
 31
0.0
  0
LINE
  5
4D1
330
1F
100
AcDbEntity
  8
2
  6
CONTINUOUS
370
25
 62
7
100
AcDbLine
 10
17.84994252902606
 20
17.79263230977895
 30
0.0
 11
18.92152390384967
 21
18.86421368460256
 31
0.0
  0
LINE
  5
4D2
330
1F
100
AcDbEntity
  8
2
  6
CONTINUOUS
370
25
 62
7
100
AcDbLine
 10
17.81717147427158
 20
18.1841253237364
 30
0.0
 11
19.12277553174006
 21
19.48972938120488
 31
0.0
  0
LINE
  5
4D3
330
1F
100
AcDbEntity
  8
2
  6
CONTINUOUS
370
25
 62
7
100
AcDbLine
 10
17.7844004195171
 20
18.57561833769385
 30
0.0
 11
19.32402715963046
 21
20.11524507780721
 31
0.0
  0
LINE
  5
4D4
330
1F
100
AcDbEntity
  8
2
  6
CONTINUOUS
370
25
 62
7
100
AcDbLine
 10
17.75162936476262
 20
18.96711135165129
 30
0.0
 11
19.52527878752086
 21
20.74076077440953
 31
0.0
  0
LINE
  5
4D5
330
1F
100
AcDbEntity
  8
2
  6
CONTINUOUS
370
25
 62
7
100
AcDbLine
 10
17.71885831000814
 20
19.35860436560874
 30
0.0
 11
19.24989366086821
 21
20.88963971646881
 31
0.0
  0
LINE
  5
4D6
330
1F
100
AcDbEntity
  8
2
  6
CONTINUOUS
370
25
 62
7
100
AcDbLine
 10
17.68608725525366
 20
19.75009737956618
 30
0.0
 11
18.86917513159352
 21
20.93318525590605
 31
0.0
  0
LINE
  5
4D7
330
1F
100
AcDbEntity
  8
2
  6
CONTINUOUS
370
25
 62
7
100
AcDbLine
 10
17.65331620049918
 20
20.14159039352363
 30
0.0
 11
18.48845660231884
 21
20.9767307953433
 31
0.0
  0
LINE
  5
4D8
330
1F
100
AcDbEntity
  8
2
  6
CONTINUOUS
370
25
 62
7
100
AcDbLine
 10
17.6205451457447
 20
20.53308340748108
 30
0.0
 11
18.10773807304416
 21
21.02027633478054
 31
0.0
  0
LINE
  5
4D9
330
1F
100
AcDbEntity
  8
2
  6
CONTINUOUS
370
25
 62
7
100
AcDbLine
 10
17.58777409099021
 20
20.92457642143852
 30
0.0
 11
17.72701954376948
 21
21.06382187421779
 31
0.0
  0
LINE
  5
4DA
330
1F
100
AcDbEntity
  8
2
  6
CONTINUOUS
370
25
 62
7
100
AcDbLine
 10
17.96661982586801
 20
16.39876973979819
 30
0.0
 11
18.08894309526518
 21
16.27644647040103
 31
0.0
  0
LINE
  5
4DB
330
1F
100
AcDbEntity
  8
2
  6
CONTINUOUS
370
25
 62
7
100
AcDbLine
 10
17.9278611698409
 20
16.86179246453723
 30
0.0
 11
18.19221741677524
 21
16.59743621760289
 31
0.0
  0
LINE
  5
4DC
330
1F
100
AcDbEntity
  8
2
  6
CONTINUOUS
370
25
 62
7
100
AcDbLine
 10
17.8891025138138
 20
17.32481518927626
 30
0.0
 11
18.29549173828531
 21
16.91842596480475
 31
0.0
  0
LINE
  5
4DD
330
1F
100
AcDbEntity
  8
2
  6
CONTINUOUS
370
25
 62
7
100
AcDbLine
 10
17.85034385778669
 20
17.7878379140153
 30
0.0
 11
18.39876605979537
 21
17.23941571200661
 31
0.0
  0
LINE
  5
4DE
330
1F
100
AcDbEntity
  8
2
  6
CONTINUOUS
370
25
 62
7
100
AcDbLine
 10
17.81158520175958
 20
18.25086063875434
 30
0.0
 11
18.50204038130544
 21
17.56040545920848
 31
0.0
  0
LINE
  5
4DF
330
1F
100
AcDbEntity
  8
2
  6
CONTINUOUS
370
25
 62
7
100
AcDbLine
 10
17.77282654573247
 20
18.71388336349337
 30
0.0
 11
18.60531470281551
 21
17.88139520641034
 31
0.0
  0
LINE
  5
4E0
330
1F
100
AcDbEntity
  8
2
  6
CONTINUOUS
370
25
 62
7
100
AcDbLine
 10
17.73406788970537
 20
19.1769060882324
 30
0.0
 11
18.70858902432557
 21
18.2023849536122
 31
0.0
  0
LINE
  5
4E1
330
1F
100
AcDbEntity
  8
2
  6
CONTINUOUS
370
25
 62
7
100
AcDbLine
 10
17.69530923367826
 20
19.63992881297144
 30
0.0
 11
18.81186334583564
 21
18.52337470081406
 31
0.0
  0
LINE
  5
4E2
330
1F
100
AcDbEntity
  8
2
  6
CONTINUOUS
370
25
 62
7
100
AcDbLine
 10
17.65655057765116
 20
20.10295153771047
 30
0.0
 11
18.91513766734571
 21
18.84436444801592
 31
0.0
  0
LINE
  5
4E3
330
1F
100
AcDbEntity
  8
2
  6
CONTINUOUS
370
25
 62
7
100
AcDbLine
 10
17.61779192162405
 20
20.56597426244951
 30
0.0
 11
19.01841198885577
 21
19.16535419521778
 31
0.0
  0
LINE
  5
4E4
330
1F
100
AcDbEntity
  8
2
  6
CONTINUOUS
370
25
 62
7
100
AcDbLine
 10
17.57903326559694
 20
21.02899698718854
 30
0.0
 11
19.12168631036584
 21
19.48634394241964
 31
0.0
  0
LINE
  5
4E5
330
1F
100
AcDbEntity
  8
2
  6
CONTINUOUS
370
25
 62
7
100
AcDbLine
 10
17.99965583755388
 20
21.03263848394353
 30
0.0
 11
19.22496063187591
 21
19.8073336896215
 31
0.0
  0
LINE
  5
4E6
330
1F
100
AcDbEntity
  8
2
  6
CONTINUOUS
370
25
 62
7
100
AcDbLine
 10
18.4787131675671
 20
20.97784522264223
 30
0.0
 11
19.32823495338598
 21
20.12832343682336
 31
0.0
  0
LINE
  5
4E7
330
1F
100
AcDbEntity
  8
2
  6
CONTINUOUS
370
25
 62
7
100
AcDbLine
 10
18.95777049758033
 20
20.92305196134094
 30
0.0
 11
19.43150927489604
 21
20.44931318402523
 31
0.0
  0
LINE
  5
4E8
330
1F
100
AcDbEntity
  8
2
  6
CONTINUOUS
370
25
 62
7
100
AcDbLine
 10
19.43682782759355
 20
20.86825870003965
 30
0.0
 11
19.5347835964061
 21
20.77030293122709
 31
0.0
  0
LINE
  5
4E9
330
1F
100
AcDbEntity
  8
2
  6
CONTINUOUS
370
25
 62
7
100
AcDbLine
 10
40.0
 20
38.0
 30
0.0
 11
35.14602431945583
 21
36.43829577298207
 31
0.0
  0
LINE
  5
4EA
330
1F
100
AcDbEntity
  8
2
  6
CONTINUOUS
370
25
 62
7
100
AcDbLine
 10
35.14602431945583
 20
36.43829577298207
 30
0.0
 11
34.91875159218309
 21
38.42534059065429
 31
0.0
  0
LINE
  5
4EB
330
1F
100
AcDbEntity
  8
2
  6
CONTINUOUS
370
25
 62
7
100
AcDbLine
 10
34.91875159218309
 20
38.42534059065429
 30
0.0
 11
40.0
 21
38.0
 31
0.0
  0
LINE
  5
4EC
330
1F
100
AcDbEntity
  8
2
  6
CONTINUOUS
370
25
 62
7
100
AcDbLine
 10
39.63784910180667
 20
37.8834826077119
 30
0.0
 11
39.77333974605079
 21
38.01897325195603
 31
0.0
  0
LINE
  5
4ED
330
1F
100
AcDbEntity
  8
2
  6
CONTINUOUS
370
25
 62
7
100
AcDbLine
 10
39.01233340520434
 20
37.6822309798215
 30
0.0
 11
39.38184673209334
 21
38.0517443067105
 31
0.0
  0
LINE
  5
4EE
330
1F
100
AcDbEntity
  8
2
  6
CONTINUOUS
370
25
 62
7
100
AcDbLine
 10
38.38681770860201
 20
37.4809793519311
 30
0.0
 11
38.99035371813589
 21
38.08451536146498
 31
0.0
  0
LINE
  5
4EF
330
1F
100
AcDbEntity
  8
2
  6
CONTINUOUS
370
25
 62
7
100
AcDbLine
 10
37.76130201199967
 20
37.2797277240407
 30
0.0
 11
38.59886070417843
 21
38.11728641621946
 31
0.0
  0
LINE
  5
4F0
330
1F
100
AcDbEntity
  8
2
  6
CONTINUOUS
370
25
 62
7
100
AcDbLine
 10
37.13578631539733
 20
37.0784760961503
 30
0.0
 11
38.20736769022098
 21
38.15005747097395
 31
0.0
  0
LINE
  5
4F1
330
1F
100
AcDbEntity
  8
2
  6
CONTINUOUS
370
25
 62
7
100
AcDbLine
 10
36.510270618795
 20
36.8772244682599
 30
0.0
 11
37.81587467626352
 21
38.18282852572843
 31
0.0
  0
LINE
  5
4F2
330
1F
100
AcDbEntity
  8
2
  6
CONTINUOUS
370
25
 62
7
100
AcDbLine
 10
35.88475492219267
 20
36.6759728403695
 30
0.0
 11
37.42438166230607
 21
38.2155995804829
 31
0.0
  0
LINE
  5
4F3
330
1F
100
AcDbEntity
  8
2
  6
CONTINUOUS
370
25
 62
7
100
AcDbLine
 10
35.25923922559033
 20
36.4747212124791
 30
0.0
 11
37.03288864834862
 21
38.24837063523739
 31
0.0
  0
LINE
  5
4F4
330
1F
100
AcDbEntity
  8
2
  6
CONTINUOUS
370
25
 62
7
100
AcDbLine
 10
35.11036028353119
 20
36.75010633913188
 30
0.0
 11
36.64139563439117
 21
38.28114168999187
 31
0.0
  0
LINE
  5
4F5
330
1F
100
AcDbEntity
  8
2
  6
CONTINUOUS
370
25
 62
7
100
AcDbLine
 10
35.06681474409394
 20
37.13082486840657
 30
0.0
 11
36.24990262043372
 21
38.31391274474635
 31
0.0
  0
LINE
  5
4F6
330
1F
100
AcDbEntity
  8
2
  6
CONTINUOUS
370
25
 62
7
100
AcDbLine
 10
35.0232692046567
 20
37.51154339768127
 30
0.0
 11
35.85840960647626
 21
38.34668379950083
 31
0.0
  0
LINE
  5
4F7
330
1F
100
AcDbEntity
  8
2
  6
CONTINUOUS
370
25
 62
7
100
AcDbLine
 10
34.97972366521945
 20
37.89226192695594
 30
0.0
 11
35.46691659251881
 21
38.37945485425531
 31
0.0
  0
LINE
  5
4F8
330
1F
100
AcDbEntity
  8
2
  6
CONTINUOUS
370
25
 62
7
100
AcDbLine
 10
34.9361781257822
 20
38.27298045623063
 30
0.0
 11
35.07542357856136
 21
38.41222590900979
 31
0.0
  0
LINE
  5
4F9
330
1F
100
AcDbEntity
  8
2
  6
CONTINUOUS
370
25
 62
7
100
AcDbLine
 10
35.13100332475474
 20
36.56962428756117
 30
0.0
 11
35.23402027328869
 21
36.46660733902722
 31
0.0
  0
LINE
  5
4FA
330
1F
100
AcDbEntity
  8
2
  6
CONTINUOUS
370
25
 62
7
100
AcDbLine
 10
35.07621006345344
 20
37.0486816175744
 30
0.0
 11
35.55501002049056
 21
36.56988166053729
 31
0.0
  0
LINE
  5
4FB
330
1F
100
AcDbEntity
  8
2
  6
CONTINUOUS
370
25
 62
7
100
AcDbLine
 10
35.02141680215215
 20
37.52773894758764
 30
0.0
 11
35.87599976769242
 21
36.67315598204736
 31
0.0
  0
LINE
  5
4FC
330
1F
100
AcDbEntity
  8
2
  6
CONTINUOUS
370
25
 62
7
100
AcDbLine
 10
34.96662354085085
 20
38.00679627760086
 30
0.0
 11
36.19698951489429
 21
36.77643030355743
 31
0.0
  0
LINE
  5
4FD
330
1F
100
AcDbEntity
  8
2
  6
CONTINUOUS
370
25
 62
7
100
AcDbLine
 10
34.97723916817767
 20
38.42044471898598
 30
0.0
 11
36.51797926209615
 21
36.8797046250675
 31
0.0
  0
LINE
  5
4FE
330
1F
100
AcDbEntity
  8
2
  6
CONTINUOUS
370
25
 62
7
100
AcDbLine
 10
35.44026189291669
 20
38.38168606295888
 30
0.0
 11
36.83896900929801
 21
36.98297894657756
 31
0.0
  0
LINE
  5
4FF
330
1F
100
AcDbEntity
  8
2
  6
CONTINUOUS
370
25
 62
7
100
AcDbLine
 10
35.90328461765576
 20
38.34292740693176
 30
0.0
 11
37.15995875649989
 21
37.08625326808763
 31
0.0
  0
LINE
  5
500
330
1F
100
AcDbEntity
  8
2
  6
CONTINUOUS
370
25
 62
7
100
AcDbLine
 10
36.36630734239478
 20
38.30416875090466
 30
0.0
 11
37.48094850370175
 21
37.1895275895977
 31
0.0
  0
LINE
  5
501
330
1F
100
AcDbEntity
  8
2
  6
CONTINUOUS
370
25
 62
7
100
AcDbLine
 10
36.82933006713384
 20
38.26541009487755
 30
0.0
 11
37.80193825090362
 21
37.29280191110777
 31
0.0
  0
LINE
  5
502
330
1F
100
AcDbEntity
  8
2
  6
CONTINUOUS
370
25
 62
7
100
AcDbLine
 10
37.29235279187287
 20
38.22665143885045
 30
0.0
 11
38.12292799810548
 21
37.39607623261783
 31
0.0
  0
LINE
  5
503
330
1F
100
AcDbEntity
  8
2
  6
CONTINUOUS
370
25
 62
7
100
AcDbLine
 10
37.75537551661193
 20
38.18789278282333
 30
0.0
 11
38.44391774530736
 21
37.4993505541279
 31
0.0
  0
LINE
  5
504
330
1F
100
AcDbEntity
  8
2
  6
CONTINUOUS
370
25
 62
7
100
AcDbLine
 10
38.21839824135095
 20
38.14913412679623
 30
0.0
 11
38.76490749250921
 21
37.60262487563797
 31
0.0
  0
LINE
  5
505
330
1F
100
AcDbEntity
  8
2
  6
CONTINUOUS
370
25
 62
7
100
AcDbLine
 10
38.68142096609001
 20
38.11037547076912
 30
0.0
 11
39.08589723971109
 21
37.70589919714804
 31
0.0
  0
LINE
  5
506
330
1F
100
AcDbEntity
  8
2
  6
CONTINUOUS
370
25
 62
7
100
AcDbLine
 10
39.14444369082904
 20
38.07161681474201
 30
0.0
 11
39.40688698691294
 21
37.80917351865811
 31
0.0
  0
LINE
  5
507
330
1F
100
AcDbEntity
  8
2
  6
CONTINUOUS
370
25
 62
7
100
AcDbLine
 10
39.60746641556809
 20
38.03285815871491
 30
0.0
 11
39.72787673411482
 21
37.91244784016818
 31
0.0
  0
TEXT
  5
508
330
1F
100
AcDbEntity
  8
2
  6
CONTINUOUS
370
25
 62
7
100
AcDbText
 10
20.70187743011715
 20
29.93589614588488
 30
0.0
 40
3.499999999999999
  1
90°
 50
45.00000000000002
 72
     1
 11
23.38299064211614
 21
32.61700935788387
 31
0.0
100
AcDbText
  0
LINE
  5
509
330
1F
100
AcDbEntity
  8
4
  6
LONGDASH_DASH
370
25
 62
2
100
AcDbLine
 10
0.0
 20
0.0
 30
0.0
 11
40.0
 21
0.0
 31
0.0
  0
LINE
  5
50A
330
1F
100
AcDbEntity
  8
SK4
  6
LONGDASH_DASH
370
25
 62
2
100
AcDbLine
 10
-28.0
 20
0.0
 30
0.0
 11
45.0
 21
0.0
 31
0.0
  0
LINE
  5
50B
330
1F
100
AcDbEntity
  8
INFTOTAL
  6
CONTINUOUS
370
18
 62
9
100
AcDbLine
 10
-60.50001100000001
 20
-52.800011
 30
0.0
 11
101.197664799
 21
-52.800011
 31
0.0
  0
LINE
  5
50C
330
1F
100
AcDbEntity
  8
INFTOTAL
  6
CONTINUOUS
370
18
 62
9
100
AcDbLine
 10
101.197664799
 20
-52.800011
 30
0.0
 11
101.197664799
 21
74.80001100000001
 31
0.0
  0
LINE
  5
50D
330
1F
100
AcDbEntity
  8
INFTOTAL
  6
CONTINUOUS
370
18
 62
9
100
AcDbLine
 10
101.197664799
 20
74.80001100000001
 30
0.0
 11
-60.50001100000001
 21
74.80001100000001
 31
0.0
  0
LINE
  5
50E
330
1F
100
AcDbEntity
  8
INFTOTAL
  6
CONTINUOUS
370
18
 62
9
100
AcDbLine
 10
-60.50001100000001
 20
74.80001100000001
 30
0.0
 11
-60.50001100000001
 21
-52.80001100000001
 31
0.0
  0
ARC
  5
50F
330
1F
100
AcDbEntity
  8
SK6
  6
CONTINUOUS
370
25
 62
5
100
AcDbCircle
 10
63.45903580837651
 20
-42.14524575338785
 30
0.0
 40
2.760489128492204
100
AcDbArc
 50
338.9379403434233
 51
90.44457437511392
  0
LINE
  5
510
330
1F
100
AcDbEntity
  8
SK6
  6
CONTINUOUS
370
25
 62
5
100
AcDbLine
 10
63.43761659695983
 20
-39.38483972421281
 30
0.0
 11
63.43761659695983
 21
-40.48789835613464
 31
0.0
  0
ARC
  5
511
330
1F
100
AcDbEntity
  8
SK6
  6
CONTINUOUS
370
25
 62
5
100
AcDbCircle
 10
63.44816282936916
 20
-42.1652392456682
 30
0.0
 40
1.677374043771785
100
AcDbArc
 50
243.4214706017864
 51
90.36024081226107
  0
ARC
  5
512
330
1F
100
AcDbEntity
  8
SK6
  6
CONTINUOUS
370
25
 62
5
100
AcDbCircle
 10
65.97041369684958
 20
-41.7338319921556
 30
0.0
 40
3.800217030022756
100
AcDbArc
 50
210.548373128854
 51
236.97801693668
  0
LINE
  5
513
330
1F
100
AcDbEntity
  8
SK6
  6
CONTINUOUS
370
25
 62
5
100
AcDbLine
 10
63.89944448512486
 20
-44.92016781867535
 30
0.0
 11
68.0413847674267
 21
-44.92016781867535
 31
0.0
  0
ARC
  5
514
330
1F
100
AcDbEntity
  8
SK6
  6
CONTINUOUS
370
25
 62
5
100
AcDbCircle
 10
65.97041563877256
 20
-41.73383209373459
 30
0.0
 40
3.800216899582478
100
AcDbArc
 50
303.0219828477958
 51
326.3732153033476
  0
LINE
  5
515
330
1F
100
AcDbEntity
  8
SK6
  6
CONTINUOUS
370
25
 62
5
100
AcDbLine
 10
69.13471355135722
 20
-43.8383194907709
 30
0.0
 11
65.77741550575462
 21
-43.8383194907709
 31
0.0
  0
LINE
  5
516
330
1F
100
AcDbEntity
  8
SK6
  6
CONTINUOUS
370
25
 62
5
100
AcDbLine
 10
65.77741550575462
 20
-43.8383194907709
 30
0.0
 11
69.69727489771986
 21
-42.47691829641693
 31
0.0
  0
ARC
  5
517
330
1F
100
AcDbEntity
  8
SK6
  6
CONTINUOUS
370
25
 62
5
100
AcDbCircle
 10
65.9704163615721
 20
-41.7338326048594
 30
0.0
 40
3.800217216614723
100
AcDbArc
 50
348.7238644184695
 51
53.46910512608847
  0
LINE
  5
518
330
1F
100
AcDbEntity
  8
SK6
  6
CONTINUOUS
370
25
 62
5
100
AcDbLine
 10
68.23251904538544
 20
-38.68022124429967
 30
0.0
 11
66.03510427882736
 21
-43.13730973507057
 31
0.0
  0
ENDSEC
  0
SECTION
  2
OBJECTS
  0
DICTIONARY
  5
C
330
0
100
AcDbDictionary
  3
ACAD_GROUP
350
D
  3
ACAD_LAYOUT
350
1A
  3
ACAD_MATERIAL
350
3B
  3
ACAD_MLEADERSTYLE
350
53B
  3
ACAD_MLINESTYLE
350
17
  3
ACAD_PLOTSETTINGS
350
19
  3
ACAD_SCALELIST
350
B4
  3
ACAD_VISUALSTYLE
350
2A
  3
ACDBHEADERROUNDTRIPXREC
350
519
  3
ACDBVARIABLEDICTIONARY
350
539
  0
DICTIONARY
  5
D
102
{ACAD_REACTORS
330
C
102
}
330
C
100
AcDbDictionary
  0
DICTIONARY
  5
1A
102
{ACAD_REACTORS
330
C
102
}
330
C
100
AcDbDictionary
  0
DICTIONARY
  5
3B
102
{ACAD_REACTORS
330
C
102
}
330
C
100
AcDbDictionary
  3
BYBLOCK
350
3D
  3
BYLAYER
350
3C
  3
GLOBAL
350
3E
  0
DICTIONARY
  5
53B
102
{ACAD_REACTORS
330
C
102
}
330
C
100
AcDbDictionary
  0
DICTIONARY
  5
17
102
{ACAD_REACTORS
330
C
102
}
330
C
100
AcDbDictionary
  3
STANDARD
350
18
  0
DICTIONARY
  5
19
102
{ACAD_REACTORS
330
C
102
}
330
C
100
AcDbDictionary
  0
DICTIONARY
  5
B4
102
{ACAD_REACTORS
330
C
102
}
330
C
100
AcDbDictionary
  3
A0
350
B5
  3
A1
350
B6
  3
A2
350
B7
  3
A3
350
B8
  3
A4
350
B9
  3
A5
350
BA
  3
A6
350
BB
  3
A7
350
BC
  3
A8
350
BD
  3
A9
350
BE
  3
B0
350
BF
  3
B1
350
C0
  3
B2
350
C1
  3
B3
350
C2
  3
B4
350
C3
  3
B5
350
C4
  3
B6
350
C5
  3
B7
350
C6
  3
B8
350
C7
  3
B9
350
C8
  3
C0
350
C9
  3
C1
350
CA
  3
C2
350
CB
  3
C3
350
CC
  3
C4
350
CD
  3
C5
350
CE
  3
C6
350
CF
  3
C7
350
D0
  3
C8
350
D1
  3
C9
350
D2
  3
D0
350
D3
  3
D1
350
D4
  3
D2
350
D5
  0
DICTIONARY
  5
2A
102
{ACAD_REACTORS
330
C
102
}
330
C
100
AcDbDictionary
  3
2DWIREFRAME
350
2F
  3
3D_HIDDEN
350
31
  3
3DWIREFRAME
350
30
  3
BASIC
350
32
  3
BRIGHTEN
350
36
  3
COLORCHANGE
350
3A
  3
CONCEPTUAL
350
34
  3
DIM
350
35
  3
FACEPATTERN
350
39
  3
FLAT
350
2B
  3
FLATWITHEDGES
350
2C
  3
GOURAUD
350
2D
  3
GOURAUDWITHEDGES
350
2E
  3
LINEPATTERN
350
38
  3
REALISTIC
350
33
  3
THICKEN
350
37
  0
DICTIONARY
  5
519
102
{ACAD_REACTORS
330
C
102
}
330
C
100
AcDbDictionary
  3
CEPSNTYPE
350
522
  3
DIMSTYLEDATA
350
538
  3
FINGERPRINTGUID
350
523
  3
HYPERLINKBASE
350
51C
  3
INSUNITS
350
521
  3
LAYOUTDICT
350
51E
  3
LWETCUNION
350
520
  3
PLOTSETDICT
350
51F
  3
PSVPSCALE
350
525
  3
PUCSBASE
350
528
  3
PUCSORGBACK
350
52E
  3
PUCSORGBOTTOM
350
52A
  3
PUCSORGFRONT
350
52D
  3
PUCSORGLEFT
350
52B
  3
PUCSORGRIGHT
350
52C
  3
PUCSORGTOP
350
529
  3
PUCSORTHOREF
350
526
  3
PUCSORTHOVIEW
350
527
  3
STYLESHEET
350
51D
  3
TSTACKALIGN
350
51A
  3
TSTACKSIZE
350
51B
  3
UCSBASE
350
531
  3
UCSORGBACK
350
537
  3
UCSORGBOTTOM
350
533
  3
UCSORGFRONT
350
536
  3
UCSORGLEFT
350
534
  3
UCSORGRIGHT
350
535
  3
UCSORGTOP
350
532
  3
UCSORTHOREF
350
52F
  3
UCSORTHOVIEW
350
530
  3
VERSIONGUID
350
524
  0
DICTIONARY
  5
539
102
{ACAD_REACTORS
330
C
102
}
330
C
100
AcDbDictionary
  3
CANNOSCALE
350
53E
  3
DIMASSOC
350
53F
  3
HIDETEXT
350
540
  3
PSOLHEIGHT
350
53D
  3
PSOLWIDTH
350
53C
  0
MATERIAL
  5
3D
102
{ACAD_REACTORS
330
3B
102
}
102
{ACAD_XDICTIONARY
360
543
102
}
330
3B
100
AcDbMaterial
  1
ByBlock
  0
MATERIAL
  5
3C
102
{ACAD_REACTORS
330
3B
102
}
102
{ACAD_XDICTIONARY
360
541
102
}
330
3B
100
AcDbMaterial
  1
ByLayer
  0
MATERIAL
  5
3E
102
{ACAD_REACTORS
330
3B
102
}
102
{ACAD_XDICTIONARY
360
545
102
}
330
3B
100
AcDbMaterial
  1
Global
  0
MLINESTYLE
  5
18
102
{ACAD_REACTORS
330
17
102
}
330
17
100
AcDbMlineStyle
  2
Standard
 70
     0
  3

 62
   256
 51
90.0
 52
90.0
 71
     2
 49
0.5
 62
   256
  6
BYLAYER
 49
-0.5
 62
   256
  6
BYLAYER
  0
ACAD_PROXY_OBJECT
  5
B5
102
{ACAD_REACTORS
330
B4
102
}
330
B4
100
AcDbProxyObject
 90
      499
 91
      503
 93
       41
310
903313A31580
  0
ACAD_PROXY_OBJECT
  5
B6
102
{ACAD_REACTORS
330
B4
102
}
330
B4
100
AcDbProxyObject
 90
      499
 91
      503
 93
      105
310
903313A324000000000000004000
  0
ACAD_PROXY_OBJECT
  5
B7
102
{ACAD_REACTORS
330
B4
102
}
330
B4
100
AcDbProxyObject
 90
      499
 91
      503
 93
      105
310
903313A344000000000000104000
  0
ACAD_PROXY_OBJECT
  5
B8
102
{ACAD_REACTORS
330
B4
102
}
330
B4
100
AcDbProxyObject
 90
      499
 91
      503
 93
      105
310
903313A354000000000000144000
  0
ACAD_PROXY_OBJECT
  5
B9
102
{ACAD_REACTORS
330
B4
102
}
330
B4
100
AcDbProxyObject
 90
      499
 91
      503
 93
      105
310
903313A384000000000000204000
  0
ACAD_PROXY_OBJECT
  5
BA
102
{ACAD_REACTORS
330
B4
102
}
330
B4
100
AcDbProxyObject
 90
      499
 91
      503
 93
      113
310
904313A31304000000000000244000
  0
ACAD_PROXY_OBJECT
  5
BB
102
{ACAD_REACTORS
330
B4
102
}
330
B4
100
AcDbProxyObject
 90
      499
 91
      503
 93
      113
310
904313A31364000000000000304000
  0
ACAD_PROXY_OBJECT
  5
BC
102
{ACAD_REACTORS
330
B4
102
}
330
B4
100
AcDbProxyObject
 90
      499
 91
      503
 93
      113
310
904313A32304000000000000344000
  0
ACAD_PROXY_OBJECT
  5
BD
102
{ACAD_REACTORS
330
B4
102
}
330
B4
100
AcDbProxyObject
 90
      499
 91
      503
 93
      113
310
904313A333040000000000003E4000
  0
ACAD_PROXY_OBJECT
  5
BE
102
{ACAD_REACTORS
330
B4
102
}
330
B4
100
AcDbProxyObject
 90
      499
 91
      503
 93
      113
310
904313A34304000000000000444000
  0
ACAD_PROXY_OBJECT
  5
BF
102
{ACAD_REACTORS
330
B4
102
}
330
B4
100
AcDbProxyObject
 90
      499
 91
      503
 93
      113
310
904313A35304000000000000494000
  0
ACAD_PROXY_OBJECT
  5
C0
102
{ACAD_REACTORS
330
B4
102
}
330
B4
100
AcDbProxyObject
 90
      499
 91
      503
 93
      121
310
905313A3130304000000000000594000
  0
ACAD_PROXY_OBJECT
  5
C1
102
{ACAD_REACTORS
330
B4
102
}
330
B4
100
AcDbProxyObject
 90
      499
 91
      503
 93
      105
310
903323A310000000000000010100
  0
ACAD_PROXY_OBJECT
  5
C2
102
{ACAD_REACTORS
330
B4
102
}
330
B4
100
AcDbProxyObject
 90
      499
 91
      503
 93
      105
310
903343A310000000000000410100
  0
ACAD_PROXY_OBJECT
  5
C3
102
{ACAD_REACTORS
330
B4
102
}
330
B4
100
AcDbProxyObject
 90
      499
 91
      503
 93
      105
310
903383A310000000000000810100
  0
ACAD_PROXY_OBJECT
  5
C4
102
{ACAD_REACTORS
330
B4
102
}
330
B4
100
AcDbProxyObject
 90
      499
 91
      503
 93
      113
310
90431303A310000000000000910100
  0
ACAD_PROXY_OBJECT
  5
C5
102
{ACAD_REACTORS
330
B4
102
}
330
B4
100
AcDbProxyObject
 90
      499
 91
      503
 93
      121
310
9053130303A310000000000001650100
  0
ACAD_PROXY_OBJECT
  5
C6
102
{ACAD_REACTORS
330
B4
102
}
330
B4
100
AcDbProxyObject
 90
      499
 91
      503
 93
      257
310
90E312F31323822203D2031272D3022000000000000200FC000000000000284000
  0
ACAD_PROXY_OBJECT
  5
C7
102
{ACAD_REACTORS
330
B4
102
}
330
B4
100
AcDbProxyObject
 90
      499
 91
      503
 93
      249
310
90D312F363422203D2031272D3022000000000000240FC000000000000284000
  0
ACAD_PROXY_OBJECT
  5
C8
102
{ACAD_REACTORS
330
B4
102
}
330
B4
100
AcDbProxyObject
 90
      499
 91
      503
 93
      249
310
90D312F333222203D2031272D3022000000000000280FC000000000000284000
  0
ACAD_PROXY_OBJECT
  5
C9
102
{ACAD_REACTORS
330
B4
102
}
330
B4
100
AcDbProxyObject
 90
      499
 91
      503
 93
      249
310
90D312F313622203D2031272D30220000000000002C0FC000000000000284000
  0
ACAD_PROXY_OBJECT
  5
CA
102
{ACAD_REACTORS
330
B4
102
}
330
B4
100
AcDbProxyObject
 90
      499
 91
      503
 93
      249
310
90D332F333222203D2031272D30220000000000002E0FC000000000000284000
  0
ACAD_PROXY_OBJECT
  5
CB
102
{ACAD_REACTORS
330
B4
102
}
330
B4
100
AcDbProxyObject
 90
      499
 91
      503
 93
      241
310
90C312F3822203D2031272D3022000000000000300FC000000000000284000
  0
ACAD_PROXY_OBJECT
  5
CC
102
{ACAD_REACTORS
330
B4
102
}
330
B4
100
AcDbProxyObject
 90
      499
 91
      503
 93
      249
310
90D332F313622203D2031272D3022000000000000320FC000000000000284000
  0
ACAD_PROXY_OBJECT
  5
CD
102
{ACAD_REACTORS
330
B4
102
}
330
B4
100
AcDbProxyObject
 90
      499
 91
      503
 93
      241
310
90C312F3422203D2031272D3022000000000000340FC000000000000284000
  0
ACAD_PROXY_OBJECT
  5
CE
102
{ACAD_REACTORS
330
B4
102
}
330
B4
100
AcDbProxyObject
 90
      499
 91
      503
 93
      241
310
90C332F3822203D2031272D3022000000000000360FC000000000000284000
  0
ACAD_PROXY_OBJECT
  5
CF
102
{ACAD_REACTORS
330
B4
102
}
330
B4
100
AcDbProxyObject
 90
      499
 91
      503
 93
      241
310
90C312F3222203D2031272D3022000000000000380FC000000000000284000
  0
ACAD_PROXY_OBJECT
  5
D0
102
{ACAD_REACTORS
330
B4
102
}
330
B4
100
AcDbProxyObject
 90
      499
 91
      503
 93
      241
310
90C332F3422203D2031272D30220000000000003A0FC000000000000284000
  0
ACAD_PROXY_OBJECT
  5
D1
102
{ACAD_REACTORS
330
B4
102
}
330
B4
100
AcDbProxyObject
 90
      499
 91
      503
 93
      161
310
90A3122203D2031272D30224000000000000284000
  0
ACAD_PROXY_OBJECT
  5
D2
102
{ACAD_REACTORS
330
B4
102
}
330
B4
100
AcDbProxyObject
 90
      499
 91
      503
 93
      257
310
90E312D312F3222203D2031272D30220000000000003E0FC000000000000284000
  0
ACAD_PROXY_OBJECT
  5
D3
102
{ACAD_REACTORS
330
B4
102
}
330
B4
100
AcDbProxyObject
 90
      499
 91
      503
 93
      225
310
90A3322203D2031272D302200000000000002100000000000000284000
  0
ACAD_PROXY_OBJECT
  5
D4
102
{ACAD_REACTORS
330
B4
102
}
330
B4
100
AcDbProxyObject
 90
      499
 91
      503
 93
      225
310
90A3622203D2031272D302200000000000006100000000000000284000
  0
ACAD_PROXY_OBJECT
  5
D5
102
{ACAD_REACTORS
330
B4
102
}
330
B4
100
AcDbProxyObject
 90
      499
 91
      503
 93
      249
310
90D31272D3022203D2031272D30220000000000000A100000000000000284000
  0
ACAD_PROXY_OBJECT
  5
2F
102
{ACAD_REACTORS
330
2A
102
}
330
2A
100
AcDbProxyObject
 90
      499
 91
      501
 93
      436
310
42CC9915DA5C99599C985B595049028333333333333E3BF0000000000000FB0107901411070040501600405405064090741402480A0340
1001
ACAD
1000
AcDbSavedByObjectVersion
1070
     0
  0
ACAD_PROXY_OBJECT
  5
31
102
{ACAD_REACTORS
330
2A
102
}
330
2A
100
AcDbProxyObject
 90
      499
 91
      501
 93
      500
310
424CD108121A5919195B90640502408333333333333E3BF0000000000000FB01079024090700405020000000000001110200405405064090740C02480A0340
1001
ACAD
1000
AcDbSavedByObjectVersion
1070
     0
  0
ACAD_PROXY_OBJECT
  5
30
102
{ACAD_REACTORS
330
2A
102
}
330
2A
100
AcDbProxyObject
 90
      499
 91
      501
 93
      436
310
42CCD915DA5C99599C985B595059028333333333333E3BF0000000000000FB0107901411070040501600405405064090741402480A0340
1001
ACAD
1000
AcDbSavedByObjectVersion
1070
     0
  0
ACAD_PROXY_OBJECT
  5
32
102
{ACAD_REACTORS
330
2A
102
}
330
2A
100
AcDbProxyObject
 90
      499
 91
      501
 93
      388
310
4150985CDA58D07406404333333333333E3BF0000000000000FB0107A41107004050150841D405064090741402480A0350
1001
ACAD
1000
AcDbSavedByObjectVersion
1070
     0
  0
ACAD_PROXY_OBJECT
  5
36
102
{ACAD_REACTORS
330
2A
102
}
330
2A
100
AcDbProxyObject
 90
      499
 91
      501
 93
      428
310
42109C9A59DA1D195B90C409028333333333333E3BF0000000000000FB010790141107004050150841D405064090741402480A029950
1001
ACAD
1000
AcDbSavedByObjectVersion
1070
     0
  0
ACAD_PROXY_OBJECT
  5
3A
102
{ACAD_REACTORS
330
2A
102
}
330
2A
100
AcDbProxyObject
 90
      499
 91
      501
 93
      452
310
42D0DBDB1BDC90DA185B99D95104090240C333333333333E3BF0000000000000FB0108901411070040501508421405064090741402480A0350
1001
ACAD
1000
AcDbSavedByObjectVersion
1070
     0
  0
ACAD_PROXY_OBJECT
  5
34
102
{ACAD_REACTORS
330
2A
102
}
330
2A
100
AcDbProxyObject
 90
      499
 91
      501
 93
      500
310
4290DBDB98D95C1D1D585B10940D028333333333333E3BF0000000000000FB0107902409070040501000000000000111010841D405064090740C02480A0340
1001
ACAD
1000
AcDbSavedByObjectVersion
1070
     0
  0
ACAD_PROXY_OBJECT
  5
35
102
{ACAD_REACTORS
330
2A
102
}
330
2A
100
AcDbProxyObject
 90
      499
 91
      501
 93
      412
310
40D11A5B50B409028333333333333E3BF0000000000000FB010790141107004050150841D405064090741402480A02677FFFFFD0
1001
ACAD
1000
AcDbSavedByObjectVersion
1070
     0
  0
ACAD_PROXY_OBJECT
  5
39
102
{ACAD_REACTORS
330
2A
102
}
330
2A
100
AcDbProxyObject
 90
      499
 91
      501
 93
      444
310
42D19858D95C185D1D195C9B90F409028333333333333E3BF0000000000000FB010790141107004050150841D405064090741402480A0350
1001
ACAD
1000
AcDbSavedByObjectVersion
1070
     0
  0
ACAD_PROXY_OBJECT
  5
2B
102
{ACAD_REACTORS
330
2A
102
}
330
2A
100
AcDbProxyObject
 90
      499
 91
      501
 93
      388
310
41119B185D240901404333333333333E3BF0000000000000F9010740A41107004050150841D405064090741402480A1B50
1001
ACAD
1000
AcDbSavedByObjectVersion
1070
     0
  0
ACAD_PROXY_OBJECT
  5
2C
102
{ACAD_REACTORS
330
2A
102
}
330
2A
100
AcDbProxyObject
 90
      499
 91
      501
 93
      476
310
43519B185D15DA5D1A115919D95CD0140901404333333333333E3BF0000000000000F9010740901411070040501600405405064090741402480A1B50
1001
ACAD
1000
AcDbSavedByObjectVersion
1070
     0
  0
ACAD_PROXY_OBJECT
  5
2D
102
{ACAD_REACTORS
330
2A
102
}
330
2A
100
AcDbProxyObject
 90
      499
 91
      501
 93
      412
310
41D1DBDD5C985D5910240902404333333333333E3BF0000000000000F9010740A411070040501641D405064090741402480A1B50
1001
ACAD
1000
AcDbSavedByObjectVersion
1070
     0
  0
ACAD_PROXY_OBJECT
  5
2E
102
{ACAD_REACTORS
330
2A
102
}
330
2A
100
AcDbProxyObject
 90
      499
 91
      501
 93
      500
310
4411DBDD5C985D5915DA5D1A115919D95CD0340902404333333333333E3BF0000000000000F9010740901411070040501600405405064090741402480A1B50
1001
ACAD
1000
AcDbSavedByObjectVersion
1070
     0
  0
ACAD_PROXY_OBJECT
  5
38
102
{ACAD_REACTORS
330
2A
102
}
330
2A
100
AcDbProxyObject
 90
      499
 91
      501
 93
      444
310
42D31A5B995C185D1D195C9B90E409028333333333333E3BF0000000000000FB010790141107004050750841D405064090741402483A0350
1001
ACAD
1000
AcDbSavedByObjectVersion
1070
     0
  0
ACAD_PROXY_OBJECT
  5
33
102
{ACAD_REACTORS
330
2A
102
}
330
2A
100
AcDbProxyObject
 90
      499
 91
      501
 93
      420
310
425499585B1A5CDD1A58D08409028333333333333E3BF0000000000000FB01079019070040501508421405064090741402480A1B40
1001
ACAD
1000
AcDbSavedByObjectVersion
1070
     0
  0
ACAD_PROXY_OBJECT
  5
37
102
{ACAD_REACTORS
330
2A
102
}
330
2A
100
AcDbProxyObject
 90
      499
 91
      501
 93
      412
310
41D51A1A58DAD95B90D409028333333333333E3BF0000000000000FB010790141107004050150C41D405064090741402480A0350
1001
ACAD
1000
AcDbSavedByObjectVersion
1070
     0
  0
XRECORD
  5
522
102
{ACAD_REACTORS
330
519
102
}
330
519
100
AcDbXrecord
 90
        0
  0
XRECORD
  5
538
102
{ACAD_REACTORS
330
519
102
}
330
519
100
AcDbXrecord
1000
DSTYLE
1002
{
1070
   340
340
11
1002
}
  0
XRECORD
  5
523
102
{ACAD_REACTORS
330
519
102
}
330
519
100
AcDbXrecord
  1
{3672AF0D-D1AC-4598-BD60-B48AC5E8DCD4}
  0
XRECORD
  5
51C
102
{ACAD_REACTORS
330
519
102
}
330
519
100
AcDbXrecord
  1

  0
XRECORD
  5
521
102
{ACAD_REACTORS
330
519
102
}
330
519
100
AcDbXrecord
 90
        4
  0
XRECORD
  5
51E
102
{ACAD_REACTORS
330
519
102
}
330
519
100
AcDbXrecord
340
1A
  0
XRECORD
  5
520
102
{ACAD_REACTORS
330
519
102
}
330
519
100
AcDbXrecord
 90
    10781
  0
XRECORD
  5
51F
102
{ACAD_REACTORS
330
519
102
}
330
519
100
AcDbXrecord
340
19
  0
XRECORD
  5
525
102
{ACAD_REACTORS
330
519
102
}
330
519
100
AcDbXrecord
 40
0.0
  0
XRECORD
  5
528
102
{ACAD_REACTORS
330
519
102
}
330
519
100
AcDbXrecord
340
0
  0
XRECORD
  5
52E
102
{ACAD_REACTORS
330
519
102
}
330
519
100
AcDbXrecord
 10
0.0
 20
0.0
 30
0.0
  0
XRECORD
  5
52A
102
{ACAD_REACTORS
330
519
102
}
330
519
100
AcDbXrecord
 10
0.0
 20
0.0
 30
0.0
  0
XRECORD
  5
52D
102
{ACAD_REACTORS
330
519
102
}
330
519
100
AcDbXrecord
 10
0.0
 20
0.0
 30
0.0
  0
XRECORD
  5
52B
102
{ACAD_REACTORS
330
519
102
}
330
519
100
AcDbXrecord
 10
0.0
 20
0.0
 30
0.0
  0
XRECORD
  5
52C
102
{ACAD_REACTORS
330
519
102
}
330
519
100
AcDbXrecord
 10
0.0
 20
0.0
 30
0.0
  0
XRECORD
  5
529
102
{ACAD_REACTORS
330
519
102
}
330
519
100
AcDbXrecord
 10
0.0
 20
0.0
 30
0.0
  0
XRECORD
  5
526
102
{ACAD_REACTORS
330
519
102
}
330
519
100
AcDbXrecord
340
0
  0
XRECORD
  5
527
102
{ACAD_REACTORS
330
519
102
}
330
519
100
AcDbXrecord
 70
     0
  0
XRECORD
  5
51D
102
{ACAD_REACTORS
330
519
102
}
330
519
100
AcDbXrecord
  1

  0
XRECORD
  5
51A
102
{ACAD_REACTORS
330
519
102
}
330
519
100
AcDbXrecord
 90
        1
  0
XRECORD
  5
51B
102
{ACAD_REACTORS
330
519
102
}
330
519
100
AcDbXrecord
 90
       70
  0
XRECORD
  5
531
102
{ACAD_REACTORS
330
519
102
}
330
519
100
AcDbXrecord
340
0
  0
XRECORD
  5
537
102
{ACAD_REACTORS
330
519
102
}
330
519
100
AcDbXrecord
 10
0.0
 20
0.0
 30
0.0
  0
XRECORD
  5
533
102
{ACAD_REACTORS
330
519
102
}
330
519
100
AcDbXrecord
 10
0.0
 20
0.0
 30
0.0
  0
XRECORD
  5
536
102
{ACAD_REACTORS
330
519
102
}
330
519
100
AcDbXrecord
 10
0.0
 20
0.0
 30
0.0
  0
XRECORD
  5
534
102
{ACAD_REACTORS
330
519
102
}
330
519
100
AcDbXrecord
 10
0.0
 20
0.0
 30
0.0
  0
XRECORD
  5
535
102
{ACAD_REACTORS
330
519
102
}
330
519
100
AcDbXrecord
 10
0.0
 20
0.0
 30
0.0
  0
XRECORD
  5
532
102
{ACAD_REACTORS
330
519
102
}
330
519
100
AcDbXrecord
 10
0.0
 20
0.0
 30
0.0
  0
XRECORD
  5
52F
102
{ACAD_REACTORS
330
519
102
}
330
519
100
AcDbXrecord
340
0
  0
XRECORD
  5
530
102
{ACAD_REACTORS
330
519
102
}
330
519
100
AcDbXrecord
 70
     0
  0
XRECORD
  5
524
102
{ACAD_REACTORS
330
519
102
}
330
519
100
AcDbXrecord
  1
{FAEB1C32-E019-11D5-929B-00C0DF256EC4}
  0
DICTIONARYVAR
  5
53E
102
{ACAD_REACTORS
330
539
102
}
330
539
100
DictionaryVariables
280
     0
  1
1:1
  0
DICTIONARYVAR
  5
53F
102
{ACAD_REACTORS
330
539
102
}
330
539
100
DictionaryVariables
280
     0
  1
2
  0
DICTIONARYVAR
  5
540
102
{ACAD_REACTORS
330
539
102
}
330
539
100
DictionaryVariables
280
     0
  1
1
  0
DICTIONARYVAR
  5
53D
102
{ACAD_REACTORS
330
539
102
}
330
539
100
DictionaryVariables
280
     0
  1
80.000000
  0
DICTIONARYVAR
  5
53C
102
{ACAD_REACTORS
330
539
102
}
330
539
100
DictionaryVariables
280
     0
  1
5.000000
  0
DICTIONARY
  5
543
330
3D
100
AcDbDictionary
280
     1
  3
ACAD_XREC_ROUNDTRIP
360
544
  0
DICTIONARY
  5
541
330
3C
100
AcDbDictionary
280
     1
  3
ACAD_XREC_ROUNDTRIP
360
542
  0
DICTIONARY
  5
545
330
3E
100
AcDbDictionary
280
     1
  3
ACAD_XREC_ROUNDTRIP
360
546
  0
XRECORD
  5
544
102
{ACAD_REACTORS
330
543
102
}
330
543
100
AcDbXrecord
102
MATERIAL
148
0.0
149
0.0
149
0.0
 93
        0
 94
      127
282
     0
 72
     1
 77
     1
171
     1
175
     1
179
     1
273
     0
  0
XRECORD
  5
542
102
{ACAD_REACTORS
330
541
102
}
330
541
100
AcDbXrecord
102
MATERIAL
148
0.0
149
0.0
149
0.0
 93
        0
 94
      127
282
     0
 72
     1
 77
     1
171
     1
175
     1
179
     1
273
     0
  0
XRECORD
  5
546
102
{ACAD_REACTORS
330
545
102
}
330
545
100
AcDbXrecord
102
MATERIAL
148
0.0
149
0.0
149
0.0
 93
        0
 94
      127
282
     0
 72
     1
 77
     1
171
     1
175
     1
179
     1
273
     0
  0
ENDSEC
  0
EOF
